  0
SECTION
  2
HEADER
  9
$ACADVER
  1
AC1009
  9
$DWGCODEPAGE
  3
ansi_932
  9
$INSBASE
 10
-1158.314169158133
 20
-77.81124765079721
 30
0.0
  9
$EXTMIN
 10
-1158.314169158133
 20
-77.81124765079721
 30
0.0
  9
$EXTMAX
 10
-248.3141691581334
 20
516.1887523492028
 30
0.0
  9
$LIMMIN
 10
-1158.314169158133
 20
-77.81124765079721
  9
$LIMMAX
 10
-248.3141691581334
 20
516.1887523492028
  9
$ORTHOMODE
 70
     0
  9
$REGENMODE
 70
     1
  9
$FILLMODE
 70
     1
  9
$QTEXTMODE
 70
     0
  9
$MIRRTEXT
 70
     1
  9
$DRAGMODE
 70
     2
  9
$LTSCALE
 40
1.0
  9
$OSMODE
 70
    37
  9
$ATTMODE
 70
     1
  9
$TEXTSIZE
 40
2.5
  9
$TRACEWID
 40
1.0
  9
$TEXTSTYLE
  7
STYLE004
  9
$CLAYER
  8
0
  9
$CELTYPE
  6
BYLAYER
  9
$CECOLOR
 62
   256
  9
$DIMSCALE
 40
1.0
  9
$DIMASZ
 40
3.0
  9
$DIMEXO
 40
0.0
  9
$DIMDLI
 40
7.5
  9
$DIMRND
 40
0.0
  9
$DIMDLE
 40
5.0
  9
$DIMEXE
 40
1.0
  9
$DIMTP
 40
0.0
  9
$DIMTM
 40
0.0
  9
$DIMTXT
 40
3.5
  9
$DIMCEN
 40
2.5
  9
$DIMTSZ
 40
0.0
  9
$DIMTOL
 70
     0
  9
$DIMLIM
 70
     0
  9
$DIMTIH
 70
     0
  9
$DIMTOH
 70
     0
  9
$DIMSE1
 70
     0
  9
$DIMSE2
 70
     0
  9
$DIMTAD
 70
     1
  9
$DIMZIN
 70
     8
  9
$DIMBLK
  1

  9
$DIMASO
 70
     1
  9
$DIMSHO
 70
     1
  9
$DIMPOST
  1

  9
$DIMAPOST
  1

  9
$DIMALT
 70
     0
  9
$DIMALTD
 70
     3
  9
$DIMALTF
 40
0.03937
  9
$DIMLFAC
 40
1.0
  9
$DIMTOFL
 70
     1
  9
$DIMTVP
 40
0.0
  9
$DIMTIX
 70
     0
  9
$DIMSOXD
 70
     0
  9
$DIMSAH
 70
     1
  9
$DIMBLK1
  1
FXTIP_ARROW_S
  9
$DIMBLK2
  1
FXTIP_ARROW_E
  9
$DIMSTYLE
  2
FX_DIMINFO
  9
$DIMCLRD
 70
     7
  9
$DIMCLRE
 70
     7
  9
$DIMCLRT
 70
     8
  9
$DIMTFAC
 40
1.0
  9
$DIMGAP
 40
1.0
  9
$LUNITS
 70
     2
  9
$LUPREC
 70
     4
  9
$SKETCHINC
 40
1.0
  9
$FILLETRAD
 40
10.0
  9
$AUNITS
 70
     0
  9
$AUPREC
 70
     0
  9
$MENU
  1
.
  9
$ELEVATION
 40
0.0
  9
$PELEVATION
 40
0.0
  9
$THICKNESS
 40
0.0
  9
$LIMCHECK
 70
     0
  9
$CHAMFERA
 40
0.0
  9
$CHAMFERB
 40
0.0
  9
$SKPOLY
 70
     0
  9
$TDCREATE
 40
2456618.431407326
  9
$TDUPDATE
 40
2456618.431408959
  9
$TDINDWG
 40
0.0000000116
  9
$TDUSRTIMER
 40
0.0000000116
  9
$USRTIMER
 70
     1
  9
$ANGBASE
 50
0.0
  9
$ANGDIR
 70
     0
  9
$PDMODE
 70
     0
  9
$PDSIZE
 40
0.0
  9
$PLINEWID
 40
0.0
  9
$COORDS
 70
     1
  9
$SPLFRAME
 70
     0
  9
$SPLINETYPE
 70
     6
  9
$SPLINESEGS
 70
     8
  9
$ATTDIA
 70
     0
  9
$ATTREQ
 70
     1
  9
$HANDLING
 70
     1
  9
$HANDSEED
  5
683
  9
$SURFTAB1
 70
     6
  9
$SURFTAB2
 70
     6
  9
$SURFTYPE
 70
     6
  9
$SURFU
 70
     6
  9
$SURFV
 70
     6
  9
$UCSNAME
  2

  9
$UCSORG
 10
0.0
 20
0.0
 30
0.0
  9
$UCSXDIR
 10
1.0
 20
0.0
 30
0.0
  9
$UCSYDIR
 10
0.0
 20
1.0
 30
0.0
  9
$PUCSNAME
  2

  9
$PUCSORG
 10
0.0
 20
0.0
 30
0.0
  9
$PUCSXDIR
 10
1.0
 20
0.0
 30
0.0
  9
$PUCSYDIR
 10
0.0
 20
1.0
 30
0.0
  9
$USERI1
 70
     0
  9
$USERI2
 70
     0
  9
$USERI3
 70
     0
  9
$USERI4
 70
     0
  9
$USERI5
 70
     0
  9
$USERR1
 40
0.0
  9
$USERR2
 40
0.0
  9
$USERR3
 40
0.0
  9
$USERR4
 40
0.0
  9
$USERR5
 40
0.0
  9
$WORLDVIEW
 70
     1
  9
$SHADEDGE
 70
     3
  9
$SHADEDIF
 70
    70
  9
$TILEMODE
 70
     1
  9
$MAXACTVP
 70
    64
  9
$PLIMCHECK
 70
     0
  9
$PEXTMIN
 10
1.000000000000000E+20
 20
1.000000000000000E+20
 30
1.000000000000000E+20
  9
$PEXTMAX
 10
-1.000000000000000E+20
 20
-1.000000000000000E+20
 30
-1.000000000000000E+20
  9
$PLIMMIN
 10
0.0
 20
0.0
  9
$PLIMMAX
 10
420.0
 20
297.0
  9
$UNITMODE
 70
     0
  9
$VISRETAIN
 70
     1
  9
$PLINEGEN
 70
     0
  9
$PSLTSCALE
 70
     1
  0
ENDSEC
  0
SECTION
  2
TABLES
  0
TABLE
  2
VPORT
 70
     1
  0
VPORT
  2
*ACTIVE
 70
     0
 10
0.0
 20
0.0
 11
1.0
 21
1.0
 12
-703.3141691581334
 22
219.1887523492028
 13
0.0
 23
0.0
 14
10.0
 24
10.0
 15
10.0
 25
10.0
 16
0.0
 26
0.0
 36
1.0
 17
0.0
 27
0.0
 37
0.0
 40
594.0
 41
1.531986531986532
 42
50.0
 43
0.0
 44
0.0
 50
0.0
 51
0.0
 71
     0
 72
   100
 73
     1
 74
     3
 75
     0
 76
     0
 77
     0
 78
     0
  0
ENDTAB
  0
TABLE
  2
LTYPE
 70
     7
  0
LTYPE
  2
CONTINUOUS
 70
     0
  3
Continuous
 72
    65
 73
     0
 40
0.0
  0
LTYPE
  2
DASHDOT
 70
     0
  3
Dash dot __ . __ . __ . __ . __ . __ . __ . __
 72
    65
 73
     4
 40
13.0
 49
10.0
 49
-1.0
 49
1.0
 49
-1.0
  0
LTYPE
  2
DIVIDE
 70
     0
  3
Divide ____ . . ____ . . ____ . . ____ . . ____
 72
    65
 73
     6
 40
15.0
 49
10.0
 49
-1.0
 49
1.0
 49
-1.0
 49
1.0
 49
-1.0
  0
LTYPE
  2
DASHED
 70
     0
  3
Dashed __ __ __ __ __ __ __ __ __ __ __ __ __ _
 72
    65
 73
     2
 40
4.0
 49
3.0
 49
-1.0
  0
LTYPE
  2
CENTER
 70
     0
  3

 72
    65
 73
     4
 40
8.0
 49
5.0
 49
-1.0
 49
1.0
 49
-1.0
  0
LTYPE
  2
HIDDEN
 70
     0
  3

 72
    65
 73
     2
 40
1.5
 49
1.0
 49
-0.5
  0
ENDTAB
  0
TABLE
  2
LAYER
 70
    20
  0
LAYER
  2
0
 70
     0
 62
     7
  6
CONTINUOUS
  0
LAYER
  2
17
 70
     0
 62
     7
  6
CONTINUOUS
  0
LAYER
  2
99
 70
     0
 62
     7
  6
CONTINUOUS
  0
LAYER
  2
200
 70
     0
 62
     7
  6
CONTINUOUS
  0
LAYER
  2
250
 70
     0
 62
     7
  6
CONTINUOUS
  0
LAYER
  2
GR1_02
 70
     0
 62
     7
  6
CONTINUOUS
  0
LAYER
  2
GR1_12
 70
     0
 62
     7
  6
CONTINUOUS
  0
LAYER
  2
GR1_15
 70
     0
 62
     7
  6
CONTINUOUS
  0
LAYER
  2
7
 70
     0
 62
     7
  6
CONTINUOUS
  0
LAYER
  2
8
 70
     0
 62
     7
  6
CONTINUOUS
  0
LAYER
  2
9
 70
     0
 62
     7
  6
CONTINUOUS
  0
LAYER
  2
11
 70
     0
 62
     7
  6
CONTINUOUS
  0
LAYER
  2
12
 70
     0
 62
     7
  6
CONTINUOUS
  0
LAYER
  2
GR1_01
 70
     0
 62
     7
  6
CONTINUOUS
  0
LAYER
  2
GR1_10
 70
     0
 62
     7
  6
CONTINUOUS
  0
LAYER
  2
10
 70
     0
 62
     7
  6
CONTINUOUS
  0
LAYER
  2
GR1_06
 70
     0
 62
     7
  6
CONTINUOUS
  0
LAYER
  2
GR1_05
 70
     0
 62
     7
  6
CONTINUOUS
  0
ENDTAB
  0
TABLE
  2
STYLE
 70
     4
  0
STYLE
  2
STANDARD
 70
     0
 40
0.0
 41
1.0
 50
0.0
 71
     0
 42
2.5
  3
txt
  4

  0
STYLE
  2
FX_VECTOR
 70
     0
 40
0.0
 41
1.0
 50
0.0
 71
     0
 42
2.5
  3
MONOTXT.SHX
  4
BigFont.shx
  0
STYLE
  2
STYLE004
 70
     0
 40
0.0
 41
1.0
 50
0.0
 71
     0
 42
2.5
  3

  4

  0
STYLE
  2
DEFAULT
 70
     0
 40
0.0
 41
1.0
 50
0.0
 71
     0
 42
2.5
  3

  4

  0
ENDTAB
  0
TABLE
  2
VIEW
 70
     0
  0
ENDTAB
  0
TABLE
  2
UCS
 70
     0
  0
ENDTAB
  0
TABLE
  2
APPID
 70
     1
  0
APPID
  2
ACAD
 70
     0
  0
ENDTAB
  0
TABLE
  2
DIMSTYLE
 70
     2
  0
DIMSTYLE
  2
ISO-25
 70
     0
  3

  4

  5

  6

  7

 40
1.0
 41
2.5
 42
0.625
 43
3.75
 44
1.25
 45
0.0
 46
0.0
 47
0.0
 48
0.0
140
2.5
141
2.5
142
0.0
143
0.03937007874016
144
1.0
145
0.0
146
1.0
147
0.625
 71
     0
 72
     0
 73
     0
 74
     0
 75
     0
 76
     0
 77
     1
 78
     8
170
     0
171
     3
172
     1
173
     0
174
     0
175
     0
176
     0
177
     0
178
     0
  0
DIMSTYLE
  2
FX_DIMINFO
 70
     0
  3

  4

  5

  6
FXTIP_ARROW_S
  7
FXTIP_ARROW_E
 40
1.0
 41
3.0
 42
0.0
 43
7.5
 44
1.0
 45
0.0
 46
5.0
 47
0.0
 48
0.0
140
3.5
141
2.5
142
0.0
143
0.03937
144
1.0
145
0.0
146
1.0
147
1.0
 71
     0
 72
     0
 73
     0
 74
     0
 75
     0
 76
     0
 77
     1
 78
     8
170
     0
171
     3
172
     1
173
     1
174
     0
175
     0
176
     7
177
     7
178
     8
  0
ENDTAB
  0
ENDSEC
  0
SECTION
  2
BLOCKS
  0
BLOCK
  8
0
  2
$MODEL_SPACE
 70
     0
 10
0.0
 20
0.0
 30
0.0
  3
$MODEL_SPACE
  1

  0
ENDBLK
  5
21
  8
0
  0
BLOCK
 67
     1
  8
0
  2
$PAPER_SPACE
 70
     0
 10
0.0
 20
0.0
 30
0.0
  3
$PAPER_SPACE
  1

  0
ENDBLK
  5
1D
 67
     1
  8
0
  0
BLOCK
  8
0
  2
FXTIP_NONE
 70
     0
 10
0.0
 20
0.0
 30
0.0
  3
FXTIP_NONE
  1

  0
ENDBLK
  5
73
  8
0
  0
BLOCK
  8
0
  2
FXTIP_ARROW_S
 70
     0
 10
0.0
 20
0.0
 30
0.0
  3
FXTIP_ARROW_S
  1

  0
LINE
  5
77
  8
0
  6
CONTINUOUS
 62
     0
 10
0.0
 20
0.0
 30
0.0
 11
-1.0
 21
0.0000000000000001
 31
0.0
  0
LINE
  5
78
  8
0
  6
CONTINUOUS
 62
     0
 10
0.0
 20
0.0
 30
0.0
 11
-0.984807753012208
 21
-0.1736481776669302
 31
0.0
  0
LINE
  5
79
  8
0
  6
CONTINUOUS
 62
     0
 10
0.0
 20
0.0
 30
0.0
 11
-0.984807753012208
 21
0.1736481776669304
 31
0.0
  0
ENDBLK
  5
76
  8
0
  0
BLOCK
  8
0
  2
FXTIP_ARROW_E
 70
     0
 10
0.0
 20
0.0
 30
0.0
  3
FXTIP_ARROW_E
  1

  0
LINE
  5
7D
  8
0
  6
CONTINUOUS
 62
     0
 10
0.0
 20
0.0
 30
0.0
 11
-1.0
 21
0.0
 31
0.0
  0
LINE
  5
7E
  8
0
  6
CONTINUOUS
 62
     0
 10
0.0
 20
0.0
 30
0.0
 11
-0.984807753012208
 21
0.1736481776669303
 31
0.0
  0
LINE
  5
7F
  8
0
  6
CONTINUOUS
 62
     0
 10
0.0
 20
0.0
 30
0.0
 11
-0.984807753012208
 21
-0.1736481776669303
 31
0.0
  0
ENDBLK
  5
7C
  8
0
  0
BLOCK
  8
0
  2
FXTIP_BLACKDOT_S
 70
     0
 10
0.0
 20
0.0
 30
0.0
  3
FXTIP_BLACKDOT_S
  1

  0
LINE
  5
83
  8
0
  6
CONTINUOUS
 62
     0
 10
0.0
 20
0.0
 30
0.0
 11
-1.0
 21
0.0000000000000001
 31
0.0
  0
POLYLINE
  5
84
  8
0
  6
CONTINUOUS
 62
     0
 66
     1
 10
0.0
 20
0.0
 30
0.0
 70
     1
  0
VERTEX
  5
67B
  8
0
  6
CONTINUOUS
 62
     0
 10
-0.0833333333333333
 20
0.0
 30
0.0
 40
0.1666666666666667
 41
0.1666666666666667
 42
1.0
  0
VERTEX
  5
67C
  8
0
  6
CONTINUOUS
 62
     0
 10
0.0833333333333333
 20
0.0
 30
0.0
 40
0.1666666666666667
 41
0.1666666666666667
 42
1.0
  0
SEQEND
  5
681
  8
0
  6
CONTINUOUS
 62
     0
  0
CIRCLE
  5
85
  8
0
  6
CONTINUOUS
 62
     0
 10
0.0
 20
0.0
 30
0.0
 40
0.1666666666666667
  0
ENDBLK
  5
82
  8
0
  0
BLOCK
  8
0
  2
FXTIP_BLACKDOT_E
 70
     0
 10
0.0
 20
0.0
 30
0.0
  3
FXTIP_BLACKDOT_E
  1

  0
LINE
  5
89
  8
0
  6
CONTINUOUS
 62
     0
 10
0.0
 20
0.0
 30
0.0
 11
-1.0
 21
0.0
 31
0.0
  0
POLYLINE
  5
8A
  8
0
  6
CONTINUOUS
 62
     0
 66
     1
 10
0.0
 20
0.0
 30
0.0
 70
     1
  0
VERTEX
  5
67D
  8
0
  6
CONTINUOUS
 62
     0
 10
-0.0833333333333333
 20
0.0
 30
0.0
 40
0.1666666666666667
 41
0.1666666666666667
 42
1.0
  0
VERTEX
  5
67E
  8
0
  6
CONTINUOUS
 62
     0
 10
0.0833333333333333
 20
0.0
 30
0.0
 40
0.1666666666666667
 41
0.1666666666666667
 42
1.0
  0
SEQEND
  5
682
  8
0
  6
CONTINUOUS
 62
     0
  0
CIRCLE
  5
8B
  8
0
  6
CONTINUOUS
 62
     0
 10
0.0
 20
0.0
 30
0.0
 40
0.1666666666666667
  0
ENDBLK
  5
88
  8
0
  0
BLOCK
  8
0
  2
FXTIP_TRIANGLE_S
 70
     0
 10
0.0
 20
0.0
 30
0.0
  3
FXTIP_TRIANGLE_S
  1

  0
LINE
  5
8F
  8
0
  6
CONTINUOUS
 62
     0
 10
0.0
 20
0.0
 30
0.0
 11
-1.0
 21
0.0000000000000001
 31
0.0
  0
LINE
  5
90
  8
0
  6
CONTINUOUS
 62
     0
 10
0.0
 20
0.0
 30
0.0
 11
-0.984807753012208
 21
-0.1736481776669302
 31
0.0
  0
LINE
  5
91
  8
0
  6
CONTINUOUS
 62
     0
 10
0.0
 20
0.0
 30
0.0
 11
-0.984807753012208
 21
0.1736481776669304
 31
0.0
  0
LINE
  5
92
  8
0
  6
CONTINUOUS
 62
     0
 10
-0.984807753012208
 20
-0.1736481776669302
 30
0.0
 11
-0.984807753012208
 21
0.1736481776669304
 31
0.0
  0
ENDBLK
  5
8E
  8
0
  0
BLOCK
  8
0
  2
FXTIP_TRIANGLE_E
 70
     0
 10
0.0
 20
0.0
 30
0.0
  3
FXTIP_TRIANGLE_E
  1

  0
LINE
  5
96
  8
0
  6
CONTINUOUS
 62
     0
 10
0.0
 20
0.0
 30
0.0
 11
-1.0
 21
0.0
 31
0.0
  0
LINE
  5
97
  8
0
  6
CONTINUOUS
 62
     0
 10
0.0
 20
0.0
 30
0.0
 11
-0.984807753012208
 21
0.1736481776669303
 31
0.0
  0
LINE
  5
98
  8
0
  6
CONTINUOUS
 62
     0
 10
0.0
 20
0.0
 30
0.0
 11
-0.984807753012208
 21
-0.1736481776669303
 31
0.0
  0
LINE
  5
99
  8
0
  6
CONTINUOUS
 62
     0
 10
-0.984807753012208
 20
0.1736481776669303
 30
0.0
 11
-0.984807753012208
 21
-0.1736481776669303
 31
0.0
  0
ENDBLK
  5
95
  8
0
  0
BLOCK
  8
0
  2
FXTIP_ARCHITECT_S
 70
     0
 10
0.0
 20
0.0
 30
0.0
  3
FXTIP_ARCHITECT_S
  1

  0
LINE
  5
9D
  8
0
  6
CONTINUOUS
 62
     0
 10
0.0
 20
0.0
 30
0.0
 11
-1.0
 21
0.0000000000000001
 31
0.0
  0
LINE
  5
9E
  8
0
  6
CONTINUOUS
 62
     0
 10
0.0
 20
0.0
 30
0.0
 11
-0.7071067811865476
 21
-0.7071067811865474
 31
0.0
  0
LINE
  5
9F
  8
0
  6
CONTINUOUS
 62
     0
 10
0.0
 20
0.0
 30
0.0
 11
0.7071067811865476
 21
0.7071067811865474
 31
0.0
  0
ENDBLK
  5
9C
  8
0
  0
BLOCK
  8
0
  2
FXTIP_ARCHITECT_E
 70
     0
 10
0.0
 20
0.0
 30
0.0
  3
FXTIP_ARCHITECT_E
  1

  0
LINE
  5
A3
  8
0
  6
CONTINUOUS
 62
     0
 10
0.0
 20
0.0
 30
0.0
 11
-1.0
 21
0.0
 31
0.0
  0
LINE
  5
A4
  8
0
  6
CONTINUOUS
 62
     0
 10
0.0
 20
0.0
 30
0.0
 11
0.7071067811865475
 21
0.7071067811865475
 31
0.0
  0
LINE
  5
A5
  8
0
  6
CONTINUOUS
 62
     0
 10
0.0
 20
0.0
 30
0.0
 11
-0.7071067811865475
 21
-0.7071067811865475
 31
0.0
  0
ENDBLK
  5
A2
  8
0
  0
BLOCK
  8
0
  2
FXTIP_CIVIL_S
 70
     0
 10
0.0
 20
0.0
 30
0.0
  3
FXTIP_CIVIL_S
  1

  0
LINE
  5
A9
  8
0
  6
CONTINUOUS
 62
     0
 10
0.0
 20
0.0
 30
0.0
 11
-1.0
 21
0.0000000000000001
 31
0.0
  0
LINE
  5
AA
  8
0
  6
CONTINUOUS
 62
     0
 10
0.0
 20
-0.0833333333333333
 30
0.0
 11
-1.0
 21
-0.0833333333333332
 31
0.0
  0
LINE
  5
AB
  8
0
  6
CONTINUOUS
 62
     0
 10
0.0
 20
-0.1666666666666667
 30
0.0
 11
-1.0
 21
-0.1666666666666666
 31
0.0
  0
ENDBLK
  5
A8
  8
0
  0
BLOCK
  8
0
  2
FXTIP_CIVIL_E
 70
     0
 10
0.0
 20
0.0
 30
0.0
  3
FXTIP_CIVIL_E
  1

  0
LINE
  5
AF
  8
0
  6
CONTINUOUS
 62
     0
 10
0.0
 20
0.0
 30
0.0
 11
-1.0
 21
0.0
 31
0.0
  0
LINE
  5
B0
  8
0
  6
CONTINUOUS
 62
     0
 10
0.0
 20
0.0833333333333333
 30
0.0
 11
-1.0
 21
0.0833333333333333
 31
0.0
  0
LINE
  5
B1
  8
0
  6
CONTINUOUS
 62
     0
 10
0.0
 20
0.1666666666666667
 30
0.0
 11
-1.0
 21
0.1666666666666667
 31
0.0
  0
ENDBLK
  5
AE
  8
0
  0
BLOCK
  8
0
  2
FXTIP_WHITEDOT_S
 70
     0
 10
0.0
 20
0.0
 30
0.0
  3
FXTIP_WHITEDOT_S
  1

  0
LINE
  5
B5
  8
0
  6
CONTINUOUS
 62
     0
 10
0.0
 20
0.0
 30
0.0
 11
-1.0
 21
0.0000000000000001
 31
0.0
  0
CIRCLE
  5
B6
  8
0
  6
CONTINUOUS
 62
     0
 10
0.0
 20
0.0
 30
0.0
 40
0.1666666666666667
  0
ENDBLK
  5
B4
  8
0
  0
BLOCK
  8
0
  2
FXTIP_WHITEDOT_E
 70
     0
 10
0.0
 20
0.0
 30
0.0
  3
FXTIP_WHITEDOT_E
  1

  0
LINE
  5
BA
  8
0
  6
CONTINUOUS
 62
     0
 10
0.0
 20
0.0
 30
0.0
 11
-1.0
 21
0.0
 31
0.0
  0
CIRCLE
  5
BB
  8
0
  6
CONTINUOUS
 62
     0
 10
0.0
 20
0.0
 30
0.0
 40
0.1666666666666667
  0
ENDBLK
  5
B9
  8
0
  0
BLOCK
  8
0
  2
FXTIP_UPARROW_S
 70
     0
 10
0.0
 20
0.0
 30
0.0
  3
FXTIP_UPARROW_S
  1

  0
LINE
  5
BF
  8
0
  6
CONTINUOUS
 62
     0
 10
0.0
 20
0.0
 30
0.0
 11
-1.0
 21
0.0000000000000001
 31
0.0
  0
LINE
  5
C0
  8
0
  6
CONTINUOUS
 62
     0
 10
0.0
 20
0.0
 30
0.0
 11
-0.984807753012208
 21
-0.1736481776669302
 31
0.0
  0
ENDBLK
  5
BE
  8
0
  0
BLOCK
  8
0
  2
FXTIP_UPARROW_E
 70
     0
 10
0.0
 20
0.0
 30
0.0
  3
FXTIP_UPARROW_E
  1

  0
LINE
  5
C4
  8
0
  6
CONTINUOUS
 62
     0
 10
0.0
 20
0.0
 30
0.0
 11
-1.0
 21
0.0
 31
0.0
  0
LINE
  5
C5
  8
0
  6
CONTINUOUS
 62
     0
 10
0.0
 20
0.0
 30
0.0
 11
-0.984807753012208
 21
0.1736481776669303
 31
0.0
  0
ENDBLK
  5
C3
  8
0
  0
BLOCK
  8
0
  2
FXTIP_DOWNARROW_S
 70
     0
 10
0.0
 20
0.0
 30
0.0
  3
FXTIP_DOWNARROW_S
  1

  0
LINE
  5
C9
  8
0
  6
CONTINUOUS
 62
     0
 10
0.0
 20
0.0
 30
0.0
 11
-1.0
 21
0.0000000000000001
 31
0.0
  0
LINE
  5
CA
  8
0
  6
CONTINUOUS
 62
     0
 10
0.0
 20
0.0
 30
0.0
 11
-0.984807753012208
 21
0.1736481776669304
 31
0.0
  0
ENDBLK
  5
C8
  8
0
  0
BLOCK
  8
0
  2
FXTIP_DOWNARROW_E
 70
     0
 10
0.0
 20
0.0
 30
0.0
  3
FXTIP_DOWNARROW_E
  1

  0
LINE
  5
CE
  8
0
  6
CONTINUOUS
 62
     0
 10
0.0
 20
0.0
 30
0.0
 11
-1.0
 21
0.0
 31
0.0
  0
LINE
  5
CF
  8
0
  6
CONTINUOUS
 62
     0
 10
0.0
 20
0.0
 30
0.0
 11
-0.984807753012208
 21
-0.1736481776669303
 31
0.0
  0
ENDBLK
  5
CD
  8
0
  0
BLOCK
  8
0
  2
FXTIP_BLACKTRIANGLE_S
 70
     0
 10
0.0
 20
0.0
 30
0.0
  3
FXTIP_BLACKTRIANGLE_S
  1

  0
LINE
  5
D3
  8
0
  6
CONTINUOUS
 62
     0
 10
0.0
 20
0.0
 30
0.0
 11
-1.0
 21
0.0000000000000001
 31
0.0
  0
SOLID
  5
D4
  8
0
  6
CONTINUOUS
 62
     0
 10
0.0
 20
0.0
 30
0.0
 11
-0.984807753012208
 21
-0.1736481776669302
 31
0.0
 12
-0.984807753012208
 22
0.1736481776669304
 32
0.0
 13
-0.984807753012208
 23
0.1736481776669304
 33
0.0
  0
ENDBLK
  5
D2
  8
0
  0
BLOCK
  8
0
  2
FXTIP_BLACKTRIANGLE_E
 70
     0
 10
0.0
 20
0.0
 30
0.0
  3
FXTIP_BLACKTRIANGLE_E
  1

  0
LINE
  5
D8
  8
0
  6
CONTINUOUS
 62
     0
 10
0.0
 20
0.0
 30
0.0
 11
-1.0
 21
0.0
 31
0.0
  0
SOLID
  5
D9
  8
0
  6
CONTINUOUS
 62
     0
 10
0.0
 20
0.0
 30
0.0
 11
-0.984807753012208
 21
0.1736481776669303
 31
0.0
 12
-0.984807753012208
 22
-0.1736481776669303
 32
0.0
 13
-0.984807753012208
 23
-0.1736481776669303
 33
0.0
  0
ENDBLK
  5
D7
  8
0
  0
BLOCK
  8
0
  2
BLKF023
 70
     0
 10
0.0
 20
0.0
 30
0.0
  3
BLKF023
  1

  0
LINE
  5
325
  8
99
  6
CONTINUOUS
 62
     3
 10
-722.3484563840184
 20
132.4326622764464
 30
0.0
 11
-722.3484563840184
 21
132.4428143064464
 31
0.0
  0
LINE
  5
326
  8
99
  6
CONTINUOUS
 62
     3
 10
-723.7838831440185
 20
132.4428143064464
 30
0.0
 11
-723.7838831440185
 21
132.4326622764464
 31
0.0
  0
ARC
  5
327
  8
99
  6
CONTINUOUS
 62
     3
 10
-794.1048407340186
 20
105.7990643064464
 30
0.0
 40
96.425
 50
0.0043073400000448
 51
1.023193299999992
  0
ARC
  5
328
  8
99
  6
CONTINUOUS
 62
     3
 10
-652.0274987940184
 20
105.7990643064464
 30
0.0
 40
96.425
 50
178.9768067
 51
179.9956926599999
  0
LINE
  5
329
  8
99
  6
CONTINUOUS
 62
     3
 10
-699.7098410140184
 20
105.8063132764463
 30
0.0
 11
-697.6798410040185
 21
105.8063132764463
 31
0.0
  0
LINE
  5
32A
  8
99
  6
CONTINUOUS
 62
     3
 10
-748.4524985240184
 20
105.8063132764463
 30
0.0
 11
-746.4224985140186
 21
105.8063132764463
 31
0.0
  0
LINE
  5
32B
  8
99
  6
CONTINUOUS
 62
     3
 10
-699.7098410140184
 20
106.8213132764464
 30
0.0
 11
-699.7098410140184
 21
105.8063132764463
 31
0.0
  0
LINE
  5
32C
  8
99
  6
CONTINUOUS
 62
     3
 10
-699.2023410140184
 20
107.3288132764463
 30
0.0
 11
-699.7098410140184
 21
106.8213132764464
 31
0.0
  0
LINE
  5
32D
  8
99
  6
CONTINUOUS
 62
     3
 10
-699.2023410140184
 20
107.8363132764463
 30
0.0
 11
-699.2023410140184
 21
107.3288132764463
 31
0.0
  0
LINE
  5
32E
  8
99
  6
CONTINUOUS
 62
     3
 10
-699.7587994040184
 20
108.3927716764464
 30
0.0
 11
-699.2023410140184
 21
107.8363132764463
 31
0.0
  0
LINE
  5
32F
  8
99
  6
CONTINUOUS
 62
     3
 10
-746.4224985140186
 20
105.8063132764463
 30
0.0
 11
-746.4224985140186
 21
106.8213132764464
 31
0.0
  0
LINE
  5
330
  8
99
  6
CONTINUOUS
 62
     3
 10
-746.4224985140186
 20
106.8213132764464
 30
0.0
 11
-746.9299985140185
 21
107.3288132764463
 31
0.0
  0
LINE
  5
331
  8
99
  6
CONTINUOUS
 62
     3
 10
-746.9299985140185
 20
107.3288132764463
 30
0.0
 11
-746.9299985140185
 21
107.8363132764463
 31
0.0
  0
LINE
  5
332
  8
99
  6
CONTINUOUS
 62
     3
 10
-746.9299985140185
 20
107.8363132764463
 30
0.0
 11
-746.3735401240185
 21
108.3927716764464
 31
0.0
  0
LINE
  5
333
  8
99
  6
CONTINUOUS
 62
     3
 10
-722.3484563840184
 20
132.4326622764464
 30
0.0
 11
-722.3484563840184
 21
132.4428143064464
 31
0.0
  0
LINE
  5
334
  8
99
  6
CONTINUOUS
 62
     3
 10
-723.7838831440185
 20
132.4428143064464
 30
0.0
 11
-723.7838831440185
 21
132.4326622764464
 31
0.0
  0
ARC
  5
335
  8
99
  6
CONTINUOUS
 62
     3
 10
-723.0661697640185
 20
107.0678143064464
 30
0.0
 40
25.375
 50
1.023193299999854
 51
88.37921447999979
  0
ARC
  5
336
  8
99
  6
CONTINUOUS
 62
     3
 10
-723.0661697640185
 20
107.0678143064464
 30
0.0
 40
25.375
 50
91.62078552000023
 51
178.9768067000001
  0
LINE
  5
337
  8
99
  6
CONTINUOUS
 62
     3
 10
-722.3484563840184
 20
132.4326622764464
 30
0.0
 11
-722.3484563840184
 21
132.4428143064464
 31
0.0
  0
LINE
  5
338
  8
99
  6
CONTINUOUS
 62
     3
 10
-722.3484563840184
 20
132.4428143064464
 30
0.0
 11
-723.7838831440185
 21
132.4428143064464
 31
0.0
  0
LINE
  5
339
  8
99
  6
CONTINUOUS
 62
     3
 10
-723.7838831440185
 20
132.4428143064464
 30
0.0
 11
-723.7838831440185
 21
132.4326622764464
 31
0.0
  0
LINE
  5
33A
  8
9
  6
CONTINUOUS
 62
     3
 10
-746.9299985140185
 20
107.3288132764463
 30
0.0
 11
-746.4224985140186
 21
106.8213132764464
 31
0.0
  0
LINE
  5
33B
  8
9
  6
CONTINUOUS
 62
     3
 10
-746.9299985140185
 20
107.8363132764463
 30
0.0
 11
-746.9299985140185
 21
107.3288132764463
 31
0.0
  0
LINE
  5
33C
  8
9
  6
CONTINUOUS
 62
     3
 10
-746.3735401240185
 20
108.3927716764464
 30
0.0
 11
-746.9299985140185
 21
107.8363132764463
 31
0.0
  0
LINE
  5
33D
  8
9
  6
CONTINUOUS
 62
     3
 10
-699.2023410140184
 20
107.8363132764463
 30
0.0
 11
-699.7587994040184
 21
108.3927716764464
 31
0.0
  0
LINE
  5
33E
  8
9
  6
CONTINUOUS
 62
     3
 10
-699.2023410140184
 20
107.3288132764463
 30
0.0
 11
-699.2023410140184
 21
107.8363132764463
 31
0.0
  0
LINE
  5
33F
  8
9
  6
CONTINUOUS
 62
     3
 10
-699.7098410140184
 20
106.8213132764464
 30
0.0
 11
-699.2023410140184
 21
107.3288132764463
 31
0.0
  0
ARC
  5
340
  8
9
  6
CONTINUOUS
 62
     3
 10
-723.0661697640185
 20
107.0678143064464
 30
0.0
 40
23.345
 50
3.253599489999846
 51
176.7464005100002
  0
LINE
  5
341
  8
9
  6
CONTINUOUS
 62
     3
 10
-699.7098410140184
 20
105.8063132764463
 30
0.0
 11
-699.7098410140184
 21
106.8213132764464
 31
0.0
  0
LINE
  5
342
  8
9
  6
CONTINUOUS
 62
     3
 10
-746.4224985140186
 20
106.8213132764464
 30
0.0
 11
-746.4224985140186
 21
105.8063132764463
 31
0.0
  0
LINE
  5
343
  8
99
  6
CONTINUOUS
 62
     3
 10
-746.4224985140186
 20
105.8063132764463
 30
0.0
 11
-748.4524985240184
 21
105.8063132764463
 31
0.0
  0
ENDBLK
  5
323
  8
0
  0
BLOCK
  8
0
  2
BLKF024
 70
     0
 10
0.0
 20
0.0
 30
0.0
  3
BLKF024
  1

  0
ARC
  5
348
  8
99
  6
CONTINUOUS
 62
     3
 10
-441.7914157727278
 20
126.8961470564465
 30
0.0
 40
20.3
 50
14.94851102999996
 51
165.05148897
  0
LINE
  5
349
  8
99
  6
CONTINUOUS
 62
     3
 10
-418.4350870227277
 20
105.8063132764464
 30
0.0
 11
-416.4050870127278
 21
105.8063132764464
 31
0.0
  0
LINE
  5
34A
  8
99
  6
CONTINUOUS
 62
     3
 10
-467.1777445327277
 20
105.8063132764464
 30
0.0
 11
-465.1477445227279
 21
105.8063132764464
 31
0.0
  0
ARC
  5
34B
  8
99
  6
CONTINUOUS
 62
     3
 10
-370.7527448027276
 20
105.8135622564464
 30
0.0
 40
96.425
 50
163.82317465
 51
180.00430734
  0
ARC
  5
34C
  8
99
  6
CONTINUOUS
 62
     3
 10
-512.8300867427279
 20
105.8135622564464
 30
0.0
 40
96.425
 50
359.99569266
 51
16.17682534999994
  0
ARC
  5
34D
  8
99
  6
CONTINUOUS
 62
     3
 10
-441.7914157727278
 20
126.8961470564465
 30
0.0
 40
22.33
 50
15.00597246000012
 51
164.9940275399999
  0
LINE
  5
34E
  8
99
  6
CONTINUOUS
 62
     3
 10
-465.1477445227279
 20
105.8063132764464
 30
0.0
 11
-465.1477445227279
 21
104.7913132764464
 31
0.0
  0
LINE
  5
34F
  8
99
  6
CONTINUOUS
 62
     3
 10
-465.1477445227279
 20
104.7913132764464
 30
0.0
 11
-465.6552445227278
 21
104.2838132764464
 31
0.0
  0
LINE
  5
350
  8
99
  6
CONTINUOUS
 62
     3
 10
-465.6552445227278
 20
104.2838132764464
 30
0.0
 11
-465.6552445227278
 21
103.7763132764464
 31
0.0
  0
LINE
  5
351
  8
99
  6
CONTINUOUS
 62
     3
 10
-465.6552445227278
 20
103.7763132764464
 30
0.0
 11
-464.6402445227277
 21
102.7613132764465
 31
0.0
  0
LINE
  5
352
  8
99
  6
CONTINUOUS
 62
     3
 10
-464.6402445227277
 20
102.7613132764465
 30
0.0
 11
-463.6139157727278
 21
102.7613132764465
 31
0.0
  0
LINE
  5
353
  8
99
  6
CONTINUOUS
 62
     3
 10
-463.6139157727278
 20
102.7613132764465
 30
0.0
 11
-463.6139157727278
 21
122.7610974964464
 31
0.0
  0
ARC
  5
354
  8
99
  6
CONTINUOUS
 62
     3
 10
-370.7527448027276
 20
105.8135622564464
 30
0.0
 40
94.395
 50
163.81035136
 51
169.65712101
  0
ARC
  5
355
  8
99
  6
CONTINUOUS
 62
     3
 10
-512.8300867427279
 20
105.8135622564464
 30
0.0
 40
94.395
 50
10.34287899000003
 51
16.18964864000003
  0
LINE
  5
356
  8
99
  6
CONTINUOUS
 62
     3
 10
-418.4350870227277
 20
104.7913132764464
 30
0.0
 11
-418.4350870227277
 21
105.8063132764464
 31
0.0
  0
LINE
  5
357
  8
99
  6
CONTINUOUS
 62
     3
 10
-417.9275870227277
 20
104.2838132764464
 30
0.0
 11
-418.4350870227277
 21
104.7913132764464
 31
0.0
  0
LINE
  5
358
  8
99
  6
CONTINUOUS
 62
     3
 10
-417.9275870227277
 20
103.7763132764464
 30
0.0
 11
-417.9275870227277
 21
104.2838132764464
 31
0.0
  0
LINE
  5
359
  8
99
  6
CONTINUOUS
 62
     3
 10
-418.9425870227278
 20
102.7613132764465
 30
0.0
 11
-417.9275870227277
 21
103.7763132764464
 31
0.0
  0
LINE
  5
35A
  8
99
  6
CONTINUOUS
 62
     3
 10
-419.9689157727278
 20
102.7613132764465
 30
0.0
 11
-418.9425870227278
 21
102.7613132764465
 31
0.0
  0
LINE
  5
35B
  8
99
  6
CONTINUOUS
 62
     3
 10
-419.9689157727278
 20
122.7610974964464
 30
0.0
 11
-419.9689157727278
 21
102.7613132764465
 31
0.0
  0
ARC
  5
35C
  8
9
  6
CONTINUOUS
 62
     3
 10
-441.7914157727278
 20
126.8961470564465
 30
0.0
 40
20.3
 50
14.94851102999996
 51
165.05148897
  0
LINE
  5
35D
  8
9
  6
CONTINUOUS
 62
     3
 10
-419.9689157727278
 20
105.8063132764464
 30
0.0
 11
-419.9689157727278
 21
122.7610974964464
 31
0.0
  0
ARC
  5
35E
  8
9
  6
CONTINUOUS
 62
     3
 10
-370.7527448027276
 20
105.8135622564464
 30
0.0
 40
94.395
 50
163.81035136
 51
169.65712101
  0
ARC
  5
35F
  8
9
  6
CONTINUOUS
 62
     3
 10
-512.8300867427279
 20
105.8135622564464
 30
0.0
 40
94.395
 50
10.34287899000003
 51
16.18964864000003
  0
LINE
  5
360
  8
9
  6
CONTINUOUS
 62
     3
 10
-463.6139157727278
 20
122.7610974964464
 30
0.0
 11
-463.6139157727278
 21
105.8063132764464
 31
0.0
  0
ENDBLK
  5
346
  8
0
  0
BLOCK
  8
0
  2
BLKF025
 70
     0
 10
0.0
 20
0.0
 30
0.0
  3
BLKF025
  1

  0
LINE
  5
368
  8
GR1_01
  6
CONTINUOUS
 62
     3
 10
-683.0661697640185
 20
336.4484427012701
 30
0.0
 11
-683.0661697640185
 21
311.4484427012701
 31
0.0
  0
LINE
  5
369
  8
GR1_01
  6
CONTINUOUS
 62
     3
 10
-638.0661697640185
 20
336.4484427012701
 30
0.0
 11
-638.0661697640185
 21
311.4484427012701
 31
0.0
  0
LINE
  5
36A
  8
GR1_01
  6
CONTINUOUS
 62
     3
 10
-683.0661697640185
 20
336.4484427012702
 30
0.0
 11
-623.0661697640185
 21
336.4484427012702
 31
0.0
  0
LINE
  5
36B
  8
GR1_01
  6
CONTINUOUS
 62
     3
 10
-683.0661697640185
 20
311.4484427012702
 30
0.0
 11
-623.0661697640185
 21
311.4484427012702
 31
0.0
  0
LINE
  5
36C
  8
GR1_01
  6
DASHDOT
 62
     7
 10
-683.0661697640185
 20
323.9484427012702
 30
0.0
 11
-623.0661697640185
 21
323.9484427012702
 31
0.0
  0
LINE
  5
36D
  8
GR1_01
  6
DASHED
 62
     4
 10
-683.0661697640185
 20
340.9484427012702
 30
0.0
 11
-638.0661697640185
 21
340.9484427012702
 31
0.0
  0
LINE
  5
36E
  8
GR1_01
  6
DASHED
 62
     4
 10
-683.0661697640185
 20
306.9484427012702
 30
0.0
 11
-638.0661697640185
 21
306.9484427012702
 31
0.0
  0
LINE
  5
36F
  8
GR1_01
  6
DASHED
 62
     4
 10
-683.0661697640185
 20
340.9484427012702
 30
0.0
 11
-683.0661697640185
 21
336.4484427012702
 31
0.0
  0
LINE
  5
370
  8
GR1_01
  6
DASHED
 62
     4
 10
-638.0661697640185
 20
340.9484427012702
 30
0.0
 11
-638.0661697640185
 21
336.4484427012702
 31
0.0
  0
LINE
  5
371
  8
GR1_01
  6
DASHED
 62
     4
 10
-683.0661697640185
 20
311.4484427012702
 30
0.0
 11
-683.0661697640185
 21
306.9484427012702
 31
0.0
  0
LINE
  5
372
  8
GR1_01
  6
DASHED
 62
     4
 10
-638.0661697640185
 20
306.9484427012702
 30
0.0
 11
-638.0661697640185
 21
311.4484427012702
 31
0.0
  0
LINE
  5
373
  8
GR1_01
  6
CONTINUOUS
 62
     3
 10
-657.7629591140185
 20
311.4484427012702
 30
0.0
 11
-657.7629591140185
 21
336.4484427012702
 31
0.0
  0
LINE
  5
374
  8
GR1_01
  6
CONTINUOUS
 62
     3
 10
-653.0661697640185
 20
311.4484427012702
 30
0.0
 11
-653.0661697640185
 21
336.4484427012702
 31
0.0
  0
CIRCLE
  5
375
  8
GR1_01
  6
CONTINUOUS
 62
     3
 10
-668.9717483559631
 20
323.9484427012702
 30
0.0
 40
5.5
  0
CIRCLE
  5
376
  8
GR1_01
  6
DASHED
 62
     4
 10
-662.4306117562132
 20
323.9484427012702
 30
0.0
 40
5.5
  0
ARC
  5
377
  8
GR1_01
  6
CONTINUOUS
 62
     3
 10
-662.4306117562132
 20
323.9484427012702
 30
0.0
 40
5.49999999999998
 50
126.4875985989109
 51
233.5124014010891
  0
ENDBLK
  5
366
  8
0
  0
BLOCK
  8
0
  2
BLKF026
 70
     0
 10
0.0
 20
0.0
 30
0.0
  3
BLKF026
  1

  0
LINE
  5
37C
  8
GR1_01
  6
CONTINUOUS
 62
     3
 10
-1048.380308622078
 20
335.4484427012702
 30
0.0
 11
-1081.380308622078
 21
335.4484427012702
 31
0.0
  0
LINE
  5
37D
  8
GR1_01
  6
CONTINUOUS
 62
     3
 10
-1048.380308622078
 20
312.4484427012702
 30
0.0
 11
-1081.380308622078
 21
312.4484427012702
 31
0.0
  0
LINE
  5
37E
  8
GR1_01
  6
CONTINUOUS
 62
     3
 10
-1067.683519272078
 20
312.4484427012702
 30
0.0
 11
-1067.683519272078
 21
335.4484427012702
 31
0.0
  0
LINE
  5
37F
  8
GR1_01
  6
CONTINUOUS
 62
     3
 10
-1072.167752062078
 20
312.4484427012702
 30
0.0
 11
-1072.167752062078
 21
335.4484427012702
 31
0.0
  0
LINE
  5
380
  8
GR1_01
  6
CONTINUOUS
 62
     3
 10
-1087.380308622078
 20
329.4484427012702
 30
0.0
 11
-1087.380308622078
 21
318.4484427012702
 31
0.0
  0
LINE
  5
381
  8
GR1_01
  6
CONTINUOUS
 62
     3
 10
-1042.380308622078
 20
318.4484427012702
 30
0.0
 11
-1042.380308622078
 21
329.4484427012702
 31
0.0
  0
INSERT
  5
385
  8
GR1_01
  6
CONTINUOUS
 62
     3
  2
BLKF027
 10
0.0
 20
0.0
 30
0.0
  0
LINE
  5
38A
  8
GR1_01
  6
DASHDOT
 62
     7
 10
-1042.380308622078
 20
323.9484427012702
 30
0.0
 11
-1087.380308622078
 21
323.9484427012702
 31
0.0
  0
ARC
  5
38B
  8
GR1_01
  6
CONTINUOUS
 62
     3
 10
-1048.380308622078
 20
329.4484427012702
 30
0.0
 40
6.0
 50
0.0
 51
90.0
  0
ARC
  5
38C
  8
GR1_01
  6
CONTINUOUS
 62
     3
 10
-1048.380308622078
 20
318.4484427012702
 30
0.0
 40
6.0
 50
270.0
 51
0.0
  0
ARC
  5
38D
  8
GR1_01
  6
CONTINUOUS
 62
     3
 10
-1081.380308622078
 20
318.4484427012702
 30
0.0
 40
6.0
 50
180.0
 51
270.0
  0
ARC
  5
38E
  8
GR1_01
  6
CONTINUOUS
 62
     3
 10
-1081.380308622078
 20
329.4484427012702
 30
0.0
 40
6.0
 50
90.0
 51
180.0
  0
ENDBLK
  5
37A
  8
0
  0
BLOCK
  8
0
  2
BLKF027
 70
     0
 10
0.0
 20
0.0
 30
0.0
  3
BLKF027
  1

  0
CIRCLE
  5
386
  8
GR1_01
  6
CONTINUOUS
 62
     3
 10
-1061.94187827619
 20
323.9484427012702
 30
0.0
 40
5.0
  0
ARC
  5
387
  8
GR1_01
  6
CONTINUOUS
 62
     3
 10
-1056.474730030134
 20
323.9484427012702
 30
0.0
 40
5.0
 50
270.0
 51
90.0
  0
LINE
  5
388
  8
GR1_01
  6
CONTINUOUS
 62
     3
 10
-1061.94187827619
 20
328.9484427012702
 30
0.0
 11
-1056.474730030134
 21
328.9484427012702
 31
0.0
  0
LINE
  5
389
  8
GR1_01
  6
CONTINUOUS
 62
     3
 10
-1061.94187827619
 20
318.9484427012702
 30
0.0
 11
-1056.474730030134
 21
318.9484427012702
 31
0.0
  0
ENDBLK
  5
384
  8
0
  0
BLOCK
  8
0
  2
BLKF028
 70
     0
 10
0.0
 20
0.0
 30
0.0
  3
BLKF028
  1

  0
LINE
  5
399
  8
7
  6
CONTINUOUS
 62
     3
 10
-744.8886697640185
 20
323.9484427012701
 30
0.0
 11
-744.8886697640185
 21
325.4709427012701
 31
0.0
  0
ARC
  5
39A
  8
7
  6
CONTINUOUS
 62
     3
 10
-723.0661697640185
 20
323.9484427012701
 30
0.0
 40
23.35632875
 50
183.7375189299998
 51
356.2624810699998
  0
ARC
  5
39B
  8
7
  6
CONTINUOUS
 62
     3
 10
-723.0661697640185
 20
323.9484427012701
 30
0.0
 40
23.35632875
 50
3.737518929999737
 51
176.2624810699997
  0
LINE
  5
39C
  8
7
  6
CONTINUOUS
 62
     3
 10
-701.2436697640185
 20
325.4709427012701
 30
0.0
 11
-701.2436697640185
 21
323.9484427012701
 31
0.0
  0
LINE
  5
39D
  8
7
  6
CONTINUOUS
 62
     3
 10
-699.7595164940185
 20
325.4709427012701
 30
0.0
 11
-701.2436697640185
 21
325.4709427012701
 31
0.0
  0
LINE
  5
39E
  8
7
  6
CONTINUOUS
 62
     3
 10
-701.2436697640185
 20
322.4259427012701
 30
0.0
 11
-699.7595164940185
 21
322.4259427012701
 31
0.0
  0
LINE
  5
39F
  8
7
  6
CONTINUOUS
 62
     3
 10
-746.3728230240185
 20
322.4259427012701
 30
0.0
 11
-744.8886697640185
 21
322.4259427012701
 31
0.0
  0
LINE
  5
3A0
  8
7
  6
CONTINUOUS
 62
     3
 10
-744.8886697640185
 20
322.4259427012701
 30
0.0
 11
-744.8886697640185
 21
323.9484427012701
 31
0.0
  0
LINE
  5
3A1
  8
7
  6
CONTINUOUS
 62
     3
 10
-744.8886697640185
 20
325.4709427012701
 30
0.0
 11
-746.3728230240185
 21
325.4709427012701
 31
0.0
  0
CIRCLE
  5
3A2
  8
7
  6
CONTINUOUS
 62
     3
 10
-723.0661697640185
 20
323.9484427012701
 30
0.0
 40
19.6130079
  0
LINE
  5
3A3
  8
7
  6
CONTINUOUS
 62
     3
 10
-701.2436697640185
 20
323.9484427012701
 30
0.0
 11
-701.2436697640185
 21
322.4259427012701
 31
0.0
  0
ENDBLK
  5
397
  8
0
  0
BLOCK
  8
0
  2
BLKF029
 70
     0
 10
0.0
 20
0.0
 30
0.0
  3
BLKF029
  1

  0
LINE
  5
3A8
  8
7
  6
CONTINUOUS
 62
     3
 10
-746.9299985140185
 20
402.4259427012701
 30
0.0
 11
-746.9299985140185
 21
405.4709427012701
 31
0.0
  0
LINE
  5
3A9
  8
7
  6
CONTINUOUS
 62
     3
 10
-699.2023410140184
 20
405.4709427012701
 30
0.0
 11
-699.2023410140184
 21
402.4259427012701
 31
0.0
  0
LINE
  5
3AA
  8
7
  6
CONTINUOUS
 62
     3
 10
-746.9299985140185
 20
405.4709427012701
 30
0.0
 11
-746.3206889440185
 21
405.4709427012701
 31
0.0
  0
LINE
  5
3AB
  8
7
  6
CONTINUOUS
 62
     3
 10
-699.2023410140184
 20
405.4709427012701
 30
0.0
 11
-699.8116505840185
 21
405.4709427012701
 31
0.0
  0
ARC
  5
3AC
  8
7
  6
CONTINUOUS
 62
     3
 10
-723.0661697640185
 20
403.9484427012701
 30
0.0
 40
23.35632875
 50
183.7375189299998
 51
356.2624810699998
  0
LINE
  5
3AD
  8
7
  6
CONTINUOUS
 62
     3
 10
-746.9299985140185
 20
402.4259427012701
 30
0.0
 11
-746.3206889440185
 21
402.4259427012701
 31
0.0
  0
LINE
  5
3AE
  8
7
  6
CONTINUOUS
 62
     3
 10
-699.2023410140184
 20
402.4259427012701
 30
0.0
 11
-699.8116505840185
 21
402.4259427012701
 31
0.0
  0
ARC
  5
3AF
  8
7
  6
CONTINUOUS
 62
     3
 10
-724.4175527140185
 20
403.9484427012701
 30
0.0
 40
21.9559874
 50
176.0237322
 51
183.9762678
  0
ARC
  5
3B0
  8
7
  6
CONTINUOUS
 62
     3
 10
-721.7147868040186
 20
403.9484427012701
 30
0.0
 40
21.9559874
 50
356.0237322
 51
3.976267800000013
  0
ARC
  5
3B1
  8
7
  6
CONTINUOUS
 62
     3
 10
-723.0661697640185
 20
403.9484427012701
 30
0.0
 40
23.35632875
 50
3.737518929999737
 51
176.2624810699997
  0
LINE
  5
3B2
  8
7
  6
HIDDEN
 62
     3
 10
-699.7098410140186
 20
405.4709427012701
 30
0.0
 11
-699.7098410140186
 21
402.4259427012701
 31
0.0
  0
LINE
  5
3B3
  8
7
  6
HIDDEN
 62
     3
 10
-746.4224985140186
 20
402.4259427012701
 30
0.0
 11
-746.4224985140186
 21
405.4709427012701
 31
0.0
  0
ARC
  5
3B4
  8
7
  6
CONTINUOUS
 62
     3
 10
-723.0661697640185
 20
403.9484427012701
 30
0.0
 40
23.34127761
 50
183.7399324200002
 51
356.2600675799998
  0
ARC
  5
3B5
  8
7
  6
CONTINUOUS
 62
     3
 10
-723.0661697640185
 20
403.9484427012701
 30
0.0
 40
23.34127761
 50
3.739932420000246
 51
176.2600675799997
  0
ENDBLK
  5
3A6
  8
0
  0
BLOCK
  8
0
  2
BLKF030
 70
     0
 10
0.0
 20
0.0
 30
0.0
  3
BLKF030
  1

  0
LINE
  5
3BA
  8
GR1_01
  6
CONTINUOUS
 62
     3
 10
-763.0661697640185
 20
336.4484427012701
 30
0.0
 11
-763.0661697640185
 21
311.4484427012701
 31
0.0
  0
LINE
  5
3BB
  8
GR1_01
  6
CONTINUOUS
 62
     3
 10
-808.0661697640185
 20
336.4484427012701
 30
0.0
 11
-808.0661697640185
 21
311.4484427012701
 31
0.0
  0
LINE
  5
3BC
  8
GR1_01
  6
CONTINUOUS
 62
     3
 10
-763.0661697640185
 20
336.4484427012702
 30
0.0
 11
-823.0661697640185
 21
336.4484427012702
 31
0.0
  0
LINE
  5
3BD
  8
GR1_01
  6
CONTINUOUS
 62
     3
 10
-763.0661697640185
 20
311.4484427012702
 30
0.0
 11
-823.0661697640185
 21
311.4484427012702
 31
0.0
  0
LINE
  5
3BE
  8
GR1_01
  6
DASHDOT
 62
     7
 10
-763.0661697640185
 20
323.9484427012702
 30
0.0
 11
-823.0661697640185
 21
323.9484427012702
 31
0.0
  0
LINE
  5
3BF
  8
GR1_01
  6
DASHED
 62
     4
 10
-763.0661697640185
 20
340.9484427012702
 30
0.0
 11
-808.0661697640185
 21
340.9484427012702
 31
0.0
  0
LINE
  5
3C0
  8
GR1_01
  6
DASHED
 62
     4
 10
-763.0661697640185
 20
306.9484427012702
 30
0.0
 11
-808.0661697640185
 21
306.9484427012702
 31
0.0
  0
LINE
  5
3C1
  8
GR1_01
  6
DASHED
 62
     4
 10
-763.0661697640185
 20
340.9484427012702
 30
0.0
 11
-763.0661697640185
 21
336.4484427012702
 31
0.0
  0
LINE
  5
3C2
  8
GR1_01
  6
DASHED
 62
     4
 10
-808.0661697640185
 20
340.9484427012702
 30
0.0
 11
-808.0661697640185
 21
336.4484427012702
 31
0.0
  0
LINE
  5
3C3
  8
GR1_01
  6
DASHED
 62
     4
 10
-763.0661697640185
 20
311.4484427012702
 30
0.0
 11
-763.0661697640185
 21
306.9484427012702
 31
0.0
  0
LINE
  5
3C4
  8
GR1_01
  6
DASHED
 62
     4
 10
-808.0661697640185
 20
306.9484427012702
 30
0.0
 11
-808.0661697640185
 21
311.4484427012702
 31
0.0
  0
LINE
  5
3C5
  8
GR1_01
  6
CONTINUOUS
 62
     3
 10
-788.3693804140185
 20
311.4484427012702
 30
0.0
 11
-788.3693804140185
 21
336.4484427012702
 31
0.0
  0
LINE
  5
3C6
  8
GR1_01
  6
CONTINUOUS
 62
     3
 10
-793.0661697640185
 20
311.4484427012702
 30
0.0
 11
-793.0661697640185
 21
336.4484427012702
 31
0.0
  0
CIRCLE
  5
3C7
  8
GR1_01
  6
CONTINUOUS
 62
     3
 10
-777.1605911720739
 20
323.9484427012702
 30
0.0
 40
5.5
  0
CIRCLE
  5
3C8
  8
GR1_01
  6
DASHED
 62
     4
 10
-783.7017277718237
 20
323.9484427012702
 30
0.0
 40
5.5
  0
ARC
  5
3C9
  8
GR1_01
  6
CONTINUOUS
 62
     3
 10
-783.7017277718237
 20
323.9484427012702
 30
0.0
 40
5.49999999999998
 50
306.4875985989109
 51
53.51240140108909
  0
ENDBLK
  5
3B8
  8
0
  0
BLOCK
  8
0
  2
BLKF031
 70
     0
 10
0.0
 20
0.0
 30
0.0
  3
BLKF031
  1

  0
LINE
  5
3D2
  8
GR1_01
  6
CONTINUOUS
 62
     3
 10
-956.3803086220782
 20
335.4484427012702
 30
0.0
 11
-923.3803086220782
 21
335.4484427012702
 31
0.0
  0
LINE
  5
3D3
  8
GR1_01
  6
CONTINUOUS
 62
     3
 10
-956.3803086220782
 20
312.4484427012702
 30
0.0
 11
-923.3803086220782
 21
312.4484427012702
 31
0.0
  0
LINE
  5
3D4
  8
GR1_01
  6
CONTINUOUS
 62
     3
 10
-937.0770979720783
 20
312.4484427012702
 30
0.0
 11
-937.0770979720783
 21
335.4484427012702
 31
0.0
  0
LINE
  5
3D5
  8
GR1_01
  6
CONTINUOUS
 62
     3
 10
-932.5928651820782
 20
312.4484427012702
 30
0.0
 11
-932.5928651820782
 21
335.4484427012702
 31
0.0
  0
LINE
  5
3D6
  8
GR1_01
  6
CONTINUOUS
 62
     3
 10
-917.3803086220782
 20
329.4484427012702
 30
0.0
 11
-917.3803086220782
 21
318.4484427012702
 31
0.0
  0
LINE
  5
3D7
  8
GR1_01
  6
CONTINUOUS
 62
     3
 10
-962.3803086220782
 20
318.4484427012702
 30
0.0
 11
-962.3803086220782
 21
329.4484427012702
 31
0.0
  0
INSERT
  5
3DB
  8
GR1_01
  6
CONTINUOUS
 62
     3
  2
BLKF032
 10
0.0
 20
0.0
 30
0.0
  0
LINE
  5
3E0
  8
GR1_01
  6
DASHDOT
 62
     7
 10
-962.3803086220782
 20
323.9484427012702
 30
0.0
 11
-917.3803086220782
 21
323.9484427012702
 31
0.0
  0
ARC
  5
3E1
  8
GR1_01
  6
CONTINUOUS
 62
     3
 10
-923.3803086220782
 20
329.4484427012702
 30
0.0
 40
6.0
 50
0.0
 51
90.0
  0
ARC
  5
3E2
  8
GR1_01
  6
CONTINUOUS
 62
     3
 10
-923.3803086220782
 20
318.4484427012702
 30
0.0
 40
6.0
 50
270.0
 51
0.0
  0
ARC
  5
3E3
  8
GR1_01
  6
CONTINUOUS
 62
     3
 10
-956.3803086220782
 20
318.4484427012702
 30
0.0
 40
6.0
 50
180.0
 51
270.0
  0
ARC
  5
3E4
  8
GR1_01
  6
CONTINUOUS
 62
     3
 10
-956.3803086220782
 20
329.4484427012702
 30
0.0
 40
6.0
 50
90.0
 51
180.0
  0
ENDBLK
  5
3D0
  8
0
  0
BLOCK
  8
0
  2
BLKF032
 70
     0
 10
0.0
 20
0.0
 30
0.0
  3
BLKF032
  1

  0
CIRCLE
  5
3DC
  8
GR1_01
  6
CONTINUOUS
 62
     3
 10
-942.818738967967
 20
323.9484427012702
 30
0.0
 40
5.0
  0
ARC
  5
3DD
  8
GR1_01
  6
CONTINUOUS
 62
     3
 10
-948.2858872140228
 20
323.9484427012702
 30
0.0
 40
5.0
 50
90.0
 51
270.0
  0
LINE
  5
3DE
  8
GR1_01
  6
CONTINUOUS
 62
     3
 10
-942.818738967967
 20
328.9484427012702
 30
0.0
 11
-948.2858872140228
 21
328.9484427012702
 31
0.0
  0
LINE
  5
3DF
  8
GR1_01
  6
CONTINUOUS
 62
     3
 10
-942.818738967967
 20
318.9484427012702
 30
0.0
 11
-948.2858872140228
 21
318.9484427012702
 31
0.0
  0
ENDBLK
  5
3DA
  8
0
  0
BLOCK
  8
0
  2
BLKF033
 70
     0
 10
0.0
 20
0.0
 30
0.0
  3
BLKF033
  1

  0
CIRCLE
  5
3EC
  8
GR1_06
  6
CONTINUOUS
 62
     3
 10
-723.0661697640185
 20
403.9484427012701
 30
0.0
 40
4.0
  0
INSERT
  5
3F0
  8
GR1_06
  6
CONTINUOUS
 62
     7
  2
BLKF034
 10
0.0
 20
0.0
 30
0.0
  0
LINE
  5
3FB
  8
GR1_06
  6
CONTINUOUS
 62
     7
 10
-727.0661697640185
 20
403.9484427012701
 30
0.0
 11
-719.0661697640185
 21
403.9484427012701
 31
0.0
  0
LINE
  5
3FC
  8
GR1_06
  6
CONTINUOUS
 62
     7
 10
-723.0661697640185
 20
407.9484427012701
 30
0.0
 11
-723.0661697640185
 21
399.9484427012701
 31
0.0
  0
ENDBLK
  5
3E9
  8
0
  0
BLOCK
  8
0
  2
BLKF034
 70
     0
 10
0.0
 20
0.0
 30
0.0
  3
BLKF034
  1

  0
LINE
  5
3F1
  8
GR1_06
  6
CONTINUOUS
 62
     7
 10
-725.8945968887642
 20
401.1200155765234
 30
0.0
 11
-723.0661697640185
 21
403.9484427012701
 31
0.0
  0
LINE
  5
3F2
  8
GR1_06
  6
CONTINUOUS
 62
     7
 10
-723.0661697640185
 20
403.9484427012701
 30
0.0
 11
-720.2377426392727
 21
406.7768698260159
 31
0.0
  0
LINE
  5
3F3
  8
GR1_06
  6
CONTINUOUS
 62
     7
 10
-726.5118893327312
 20
401.9169366949307
 30
0.0
 11
-724.4803833263909
 21
403.9484427012701
 31
0.0
  0
LINE
  5
3F4
  8
GR1_06
  6
CONTINUOUS
 62
     7
 10
-723.0661697640185
 20
405.362656263643
 30
0.0
 11
-721.034663757679
 21
407.3941622699824
 31
0.0
  0
LINE
  5
3F5
  8
GR1_06
  6
CONTINUOUS
 62
     7
 10
-726.9298730691748
 20
402.9131665208599
 30
0.0
 11
-725.8945968887642
 21
403.9484427012701
 31
0.0
  0
LINE
  5
3F6
  8
GR1_06
  6
CONTINUOUS
 62
     7
 10
-723.0661697640185
 20
406.7768698260159
 30
0.0
 11
-722.0308935836078
 21
407.8121460064265
 31
0.0
  0
LINE
  5
3F7
  8
GR1_06
  6
CONTINUOUS
 62
     7
 10
-725.0976757703579
 20
400.5027231325573
 30
0.0
 11
-723.0661697640185
 21
402.5342291388968
 31
0.0
  0
LINE
  5
3F8
  8
GR1_06
  6
CONTINUOUS
 62
     7
 10
-721.651956201646
 20
403.9484427012701
 30
0.0
 11
-719.6204501953057
 21
405.9799487076095
 31
0.0
  0
LINE
  5
3F9
  8
GR1_06
  6
CONTINUOUS
 62
     7
 10
-724.1014459444291
 20
400.0847393961137
 30
0.0
 11
-723.0661697640185
 21
401.1200155765239
 31
0.0
  0
LINE
  5
3FA
  8
GR1_06
  6
CONTINUOUS
 62
     7
 10
-720.2377426392727
 20
403.9484427012701
 30
0.0
 11
-719.2024664588621
 21
404.9837188816798
 31
0.0
  0
ENDBLK
  5
3EF
  8
0
  0
BLOCK
  8
0
  2
BLKF035
 70
     0
 10
0.0
 20
0.0
 30
0.0
  3
BLKF035
  1

  0
CIRCLE
  5
401
  8
GR1_06
  6
CONTINUOUS
 62
     3
 10
-723.0661697640185
 20
323.9484427012701
 30
0.0
 40
4.0
  0
INSERT
  5
405
  8
GR1_06
  6
CONTINUOUS
 62
     7
  2
BLKF036
 10
0.0
 20
0.0
 30
0.0
  0
LINE
  5
410
  8
GR1_06
  6
CONTINUOUS
 62
     7
 10
-727.0661697640185
 20
323.9484427012701
 30
0.0
 11
-719.0661697640185
 21
323.9484427012701
 31
0.0
  0
LINE
  5
411
  8
GR1_06
  6
CONTINUOUS
 62
     7
 10
-723.0661697640185
 20
327.9484427012701
 30
0.0
 11
-723.0661697640185
 21
319.9484427012701
 31
0.0
  0
ENDBLK
  5
3FF
  8
0
  0
BLOCK
  8
0
  2
BLKF036
 70
     0
 10
0.0
 20
0.0
 30
0.0
  3
BLKF036
  1

  0
LINE
  5
406
  8
GR1_06
  6
CONTINUOUS
 62
     7
 10
-725.8945968887642
 20
321.1200155765234
 30
0.0
 11
-723.0661697640185
 21
323.9484427012701
 31
0.0
  0
LINE
  5
407
  8
GR1_06
  6
CONTINUOUS
 62
     7
 10
-723.0661697640185
 20
323.9484427012701
 30
0.0
 11
-720.2377426392727
 21
326.7768698260159
 31
0.0
  0
LINE
  5
408
  8
GR1_06
  6
CONTINUOUS
 62
     7
 10
-726.5118893327312
 20
321.9169366949307
 30
0.0
 11
-724.4803833263909
 21
323.9484427012701
 31
0.0
  0
LINE
  5
409
  8
GR1_06
  6
CONTINUOUS
 62
     7
 10
-723.0661697640185
 20
325.362656263643
 30
0.0
 11
-721.034663757679
 21
327.3941622699824
 31
0.0
  0
LINE
  5
40A
  8
GR1_06
  6
CONTINUOUS
 62
     7
 10
-726.9298730691748
 20
322.9131665208599
 30
0.0
 11
-725.8945968887642
 21
323.9484427012701
 31
0.0
  0
LINE
  5
40B
  8
GR1_06
  6
CONTINUOUS
 62
     7
 10
-723.0661697640185
 20
326.7768698260159
 30
0.0
 11
-722.0308935836078
 21
327.8121460064265
 31
0.0
  0
LINE
  5
40C
  8
GR1_06
  6
CONTINUOUS
 62
     7
 10
-725.0976757703579
 20
320.5027231325573
 30
0.0
 11
-723.0661697640185
 21
322.5342291388968
 31
0.0
  0
LINE
  5
40D
  8
GR1_06
  6
CONTINUOUS
 62
     7
 10
-721.651956201646
 20
323.9484427012701
 30
0.0
 11
-719.6204501953057
 21
325.9799487076095
 31
0.0
  0
LINE
  5
40E
  8
GR1_06
  6
CONTINUOUS
 62
     7
 10
-724.1014459444291
 20
320.0847393961137
 30
0.0
 11
-723.0661697640185
 21
321.1200155765239
 31
0.0
  0
LINE
  5
40F
  8
GR1_06
  6
CONTINUOUS
 62
     7
 10
-720.2377426392727
 20
323.9484427012701
 30
0.0
 11
-719.2024664588621
 21
324.9837188816798
 31
0.0
  0
ENDBLK
  5
404
  8
0
  0
BLOCK
  8
0
  2
BLKF037
 70
     0
 10
0.0
 20
0.0
 30
0.0
  3
BLKF037
  1

  0
LINE
  5
416
  8
GR1_06
  6
CONTINUOUS
 62
     7
 10
-727.0661697640185
 20
130.0675757182524
 30
0.0
 11
-727.0661697640185
 21
-6.193686723553583
 31
0.0
  0
LINE
  5
417
  8
GR1_06
  6
CONTINUOUS
 62
     7
 10
-729.5661697640185
 20
-6.193686723553583
 30
0.0
 11
-729.5661697640185
 21
-14.19368672355358
 31
0.0
  0
LINE
  5
418
  8
GR1_06
  6
CONTINUOUS
 62
     7
 10
-730.0661697640185
 20
-6.193686723553583
 30
0.0
 11
-730.0661697640185
 21
-14.19368672355358
 31
0.0
  0
LINE
  5
419
  8
GR1_06
  6
CONTINUOUS
 62
     7
 10
-727.5661697640179
 20
0.806313276446474
 30
0.0
 11
-727.5661697640185
 21
-6.193686723553583
 31
0.0
  0
LINE
  5
41A
  8
GR1_06
  6
CONTINUOUS
 62
     7
 10
-719.0661697640185
 20
130.0675757182524
 30
0.0
 11
-719.0661697640185
 21
-6.193686723553583
 31
0.0
  0
LINE
  5
41B
  8
GR1_06
  6
CONTINUOUS
 62
     7
 10
-716.5661697640185
 20
-6.193686723553583
 30
0.0
 11
-716.5661697640185
 21
-14.19368672355358
 31
0.0
  0
LINE
  5
41C
  8
GR1_06
  6
CONTINUOUS
 62
     7
 10
-716.0661697640185
 20
-6.193686723553583
 30
0.0
 11
-716.0661697640185
 21
-14.19368672355358
 31
0.0
  0
LINE
  5
41D
  8
GR1_06
  6
CONTINUOUS
 62
     7
 10
-718.5661697640185
 20
0.806313276446474
 30
0.0
 11
-718.5661697640185
 21
-6.193686723553583
 31
0.0
  0
LINE
  5
41E
  8
GR1_06
  6
CONTINUOUS
 62
     7
 10
-730.0661697640185
 20
-6.193686723553583
 30
0.0
 11
-716.0661697640185
 21
-6.193686723553583
 31
0.0
  0
ENDBLK
  5
414
  8
0
  0
BLOCK
  8
0
  2
BLKF038
 70
     0
 10
0.0
 20
0.0
 30
0.0
  3
BLKF038
  1

  0
LINE
  5
423
  8
GR1_06
  6
CONTINUOUS
 62
     7
 10
-445.7914157727278
 20
146.7981570051928
 30
0.0
 11
-445.7914157727278
 21
-6.193686723553469
 31
0.0
  0
LINE
  5
424
  8
GR1_06
  6
CONTINUOUS
 62
     7
 10
-448.2914157727278
 20
-6.193686723553469
 30
0.0
 11
-448.2914157727278
 21
-14.19368672355347
 31
0.0
  0
LINE
  5
425
  8
GR1_06
  6
CONTINUOUS
 62
     7
 10
-448.7914157727278
 20
-6.193686723553469
 30
0.0
 11
-448.7914157727278
 21
-14.19368672355347
 31
0.0
  0
LINE
  5
426
  8
GR1_06
  6
CONTINUOUS
 62
     7
 10
-446.2914157727272
 20
0.8063132764464171
 30
0.0
 11
-446.2914157727278
 21
-6.193686723553469
 31
0.0
  0
LINE
  5
427
  8
GR1_06
  6
CONTINUOUS
 62
     7
 10
-437.7914157727278
 20
146.7981570051928
 30
0.0
 11
-437.7914157727278
 21
-6.193686723553469
 31
0.0
  0
LINE
  5
428
  8
GR1_06
  6
CONTINUOUS
 62
     7
 10
-435.2914157727278
 20
-6.193686723553469
 30
0.0
 11
-435.2914157727278
 21
-14.19368672355347
 31
0.0
  0
LINE
  5
429
  8
GR1_06
  6
CONTINUOUS
 62
     7
 10
-434.7914157727278
 20
-6.193686723553469
 30
0.0
 11
-434.7914157727278
 21
-14.19368672355347
 31
0.0
  0
LINE
  5
42A
  8
GR1_06
  6
CONTINUOUS
 62
     7
 10
-437.2914157727278
 20
0.8063132764464171
 30
0.0
 11
-437.2914157727278
 21
-6.193686723553469
 31
0.0
  0
LINE
  5
42B
  8
GR1_06
  6
CONTINUOUS
 62
     7
 10
-448.7914157727278
 20
-6.193686723553469
 30
0.0
 11
-434.7914157727278
 21
-6.193686723553469
 31
0.0
  0
ENDBLK
  5
421
  8
0
  0
BLOCK
  8
0
  2
BLKF039
 70
     0
 10
0.0
 20
0.0
 30
0.0
  3
BLKF039
  1

  0
LINE
  5
436
  8
GR1_01
  6
DASHED
 62
     4
 10
-685.8136777578544
 20
409.4484427012701
 30
0.0
 11
-685.8136777578545
 21
398.4484427012701
 31
0.0
  0
LINE
  5
437
  8
GR1_01
  6
DASHED
 62
     4
 10
-686.8136777578544
 20
408.9484427012701
 30
0.0
 11
-686.8136777578544
 21
398.9484427012702
 31
0.0
  0
LINE
  5
438
  8
GR1_01
  6
DASHED
 62
     4
 10
-706.8136777578545
 20
408.9484427012702
 30
0.0
 11
-706.8136777578546
 21
398.9484427012702
 31
0.0
  0
LINE
  5
439
  8
GR1_01
  6
DASHED
 62
     4
 10
-711.8136777578545
 20
409.44844270127
 30
0.0
 11
-711.8136777578545
 21
398.4484427012702
 31
0.0
  0
LINE
  5
43A
  8
GR1_01
  6
DASHED
 62
     4
 10
-711.8136777578545
 20
408.9484427012701
 30
0.0
 11
-685.8136777578543
 21
408.9484427012702
 31
0.0
  0
LINE
  5
43B
  8
GR1_01
  6
DASHED
 62
     4
 10
-711.8136777578546
 20
398.9484427012701
 30
0.0
 11
-685.8136777578544
 21
398.9484427012701
 31
0.0
  0
LINE
  5
43C
  8
GR1_01
  6
DASHDOT
 62
     7
 10
-711.8136777578544
 20
403.9484427012702
 30
0.0
 11
-685.8136777578544
 21
403.9484427012701
 31
0.0
  0
LINE
  5
43D
  8
GR1_01
  6
DASHED
 62
     4
 10
-703.3136777578544
 20
412.94844270127
 30
0.0
 11
-690.3136777578543
 21
412.9484427012702
 31
0.0
  0
LINE
  5
43E
  8
GR1_01
  6
DASHED
 62
     4
 10
-707.8136777578545
 20
413.44844270127
 30
0.0
 11
-689.8136777578544
 21
413.4484427012702
 31
0.0
  0
LINE
  5
43F
  8
GR1_01
  6
DASHED
 62
     4
 10
-703.3136777578549
 20
394.9484427012702
 30
0.0
 11
-690.3136777578543
 21
394.9484427012701
 31
0.0
  0
LINE
  5
440
  8
GR1_01
  6
DASHED
 62
     4
 10
-707.8136777578545
 20
394.4484427012702
 30
0.0
 11
-689.8136777578545
 21
394.4484427012701
 31
0.0
  0
LINE
  5
441
  8
GR1_01
  6
DASHED
 62
     4
 10
-686.8136777578543
 20
398.4484427012701
 30
0.0
 11
-686.8136777578543
 21
398.9484427012701
 31
0.0
  0
LINE
  5
442
  8
GR1_01
  6
DASHED
 62
     4
 10
-706.8136777578547
 20
398.4484427012702
 30
0.0
 11
-706.8136777578547
 21
398.9484427012701
 31
0.0
  0
LINE
  5
443
  8
GR1_01
  6
DASHED
 62
     4
 10
-706.8136777578544
 20
409.44844270127
 30
0.0
 11
-706.8136777578544
 21
408.9484427012701
 31
0.0
  0
LINE
  5
444
  8
GR1_01
  6
DASHED
 62
     4
 10
-686.8136777578543
 20
409.4484427012702
 30
0.0
 11
-686.8136777578543
 21
408.9484427012702
 31
0.0
  0
LINE
  5
445
  8
GR1_01
  6
DASHED
 62
     4
 10
-686.8136777578543
 20
409.4484427012702
 30
0.0
 11
-690.3136777578543
 21
412.9484427012702
 31
0.0
  0
LINE
  5
446
  8
GR1_01
  6
DASHED
 62
     4
 10
-703.3136777578544
 20
412.94844270127
 30
0.0
 11
-706.8136777578544
 21
409.44844270127
 31
0.0
  0
LINE
  5
447
  8
GR1_01
  6
DASHED
 62
     4
 10
-706.8136777578547
 20
398.4484427012702
 30
0.0
 11
-703.3136777578549
 21
394.9484427012702
 31
0.0
  0
LINE
  5
448
  8
GR1_01
  6
DASHED
 62
     4
 10
-690.3136777578543
 20
394.9484427012701
 30
0.0
 11
-686.8136777578543
 21
398.4484427012701
 31
0.0
  0
ARC
  5
449
  8
GR1_01
  6
DASHED
 62
     4
 10
-689.8136777578545
 20
398.4484427012701
 30
0.0
 40
4.0
 50
270.0
 51
0.0
  0
ARC
  5
44A
  8
GR1_01
  6
DASHED
 62
     4
 10
-689.8136777578544
 20
409.4484427012702
 30
0.0
 40
4.0
 50
359.9999999999992
 51
90.0
  0
ARC
  5
44B
  8
GR1_01
  6
DASHED
 62
     4
 10
-707.8136777578545
 20
409.44844270127
 30
0.0
 40
4.0
 50
90.0
 51
180.0
  0
ARC
  5
44C
  8
GR1_01
  6
DASHED
 62
     4
 10
-707.8136777578545
 20
398.4484427012702
 30
0.0
 40
4.0
 50
180.0
 51
270.0
  0
LINE
  5
44D
  8
GR1_01
  6
CONTINUOUS
 62
     3
 10
-709.5056446260456
 20
408.9484427012701
 30
0.0
 11
-709.5056446260456
 21
398.9484427012701
 31
0.0
  0
LINE
  5
44E
  8
GR1_01
  6
CONTINUOUS
 62
     3
 10
-699.7098410140183
 20
408.9484427012701
 30
0.0
 11
-699.7098410140183
 21
398.9484427012701
 31
0.0
  0
LINE
  5
44F
  8
GR1_01
  6
CONTINUOUS
 62
     3
 10
-699.7098410140183
 20
408.9484427012701
 30
0.0
 11
-709.5056446260456
 21
408.9484427012701
 31
0.0
  0
LINE
  5
450
  8
GR1_01
  6
CONTINUOUS
 62
     3
 10
-709.5056446260456
 20
398.9484427012701
 30
0.0
 11
-699.7098410140183
 21
398.9484427012701
 31
0.0
  0
ENDBLK
  5
434
  8
0
  0
BLOCK
  8
0
  2
BLKF040
 70
     0
 10
0.0
 20
0.0
 30
0.0
  3
BLKF040
  1

  0
LINE
  5
455
  8
GR1_01
  6
DASHED
 62
     4
 10
-760.3186617701825
 20
409.4484427012701
 30
0.0
 11
-760.3186617701824
 21
398.4484427012701
 31
0.0
  0
LINE
  5
456
  8
GR1_01
  6
DASHED
 62
     4
 10
-759.3186617701825
 20
408.9484427012701
 30
0.0
 11
-759.3186617701825
 21
398.9484427012702
 31
0.0
  0
LINE
  5
457
  8
GR1_01
  6
DASHED
 62
     4
 10
-739.3186617701824
 20
408.9484427012702
 30
0.0
 11
-739.3186617701823
 21
398.9484427012702
 31
0.0
  0
LINE
  5
458
  8
GR1_01
  6
DASHED
 62
     4
 10
-734.3186617701824
 20
409.44844270127
 30
0.0
 11
-734.3186617701824
 21
398.4484427012702
 31
0.0
  0
LINE
  5
459
  8
GR1_01
  6
DASHED
 62
     4
 10
-734.3186617701824
 20
408.9484427012701
 30
0.0
 11
-760.3186617701826
 21
408.9484427012702
 31
0.0
  0
LINE
  5
45A
  8
GR1_01
  6
DASHED
 62
     4
 10
-734.3186617701823
 20
398.9484427012701
 30
0.0
 11
-760.3186617701825
 21
398.9484427012701
 31
0.0
  0
LINE
  5
45B
  8
GR1_01
  6
DASHDOT
 62
     7
 10
-734.3186617701825
 20
403.9484427012702
 30
0.0
 11
-760.3186617701825
 21
403.9484427012701
 31
0.0
  0
LINE
  5
45C
  8
GR1_01
  6
DASHED
 62
     4
 10
-742.8186617701825
 20
412.94844270127
 30
0.0
 11
-755.8186617701826
 21
412.9484427012702
 31
0.0
  0
LINE
  5
45D
  8
GR1_01
  6
DASHED
 62
     4
 10
-738.3186617701824
 20
413.44844270127
 30
0.0
 11
-756.3186617701825
 21
413.4484427012702
 31
0.0
  0
LINE
  5
45E
  8
GR1_01
  6
DASHED
 62
     4
 10
-742.8186617701821
 20
394.9484427012702
 30
0.0
 11
-755.8186617701826
 21
394.9484427012701
 31
0.0
  0
LINE
  5
45F
  8
GR1_01
  6
DASHED
 62
     4
 10
-738.3186617701824
 20
394.4484427012702
 30
0.0
 11
-756.3186617701824
 21
394.4484427012701
 31
0.0
  0
LINE
  5
460
  8
GR1_01
  6
DASHED
 62
     4
 10
-759.3186617701826
 20
398.4484427012701
 30
0.0
 11
-759.3186617701826
 21
398.9484427012701
 31
0.0
  0
LINE
  5
461
  8
GR1_01
  6
DASHED
 62
     4
 10
-739.3186617701822
 20
398.4484427012702
 30
0.0
 11
-739.3186617701822
 21
398.9484427012701
 31
0.0
  0
LINE
  5
462
  8
GR1_01
  6
DASHED
 62
     4
 10
-739.3186617701825
 20
409.44844270127
 30
0.0
 11
-739.3186617701825
 21
408.9484427012701
 31
0.0
  0
LINE
  5
463
  8
GR1_01
  6
DASHED
 62
     4
 10
-759.3186617701826
 20
409.4484427012702
 30
0.0
 11
-759.3186617701826
 21
408.9484427012702
 31
0.0
  0
LINE
  5
464
  8
GR1_01
  6
DASHED
 62
     4
 10
-759.3186617701826
 20
409.4484427012702
 30
0.0
 11
-755.8186617701826
 21
412.9484427012702
 31
0.0
  0
LINE
  5
465
  8
GR1_01
  6
DASHED
 62
     4
 10
-742.8186617701825
 20
412.94844270127
 30
0.0
 11
-739.3186617701825
 21
409.44844270127
 31
0.0
  0
LINE
  5
466
  8
GR1_01
  6
DASHED
 62
     4
 10
-739.3186617701822
 20
398.4484427012702
 30
0.0
 11
-742.8186617701821
 21
394.9484427012702
 31
0.0
  0
LINE
  5
467
  8
GR1_01
  6
DASHED
 62
     4
 10
-755.8186617701826
 20
394.9484427012701
 30
0.0
 11
-759.3186617701826
 21
398.4484427012701
 31
0.0
  0
ARC
  5
468
  8
GR1_01
  6
DASHED
 62
     4
 10
-756.3186617701824
 20
398.4484427012701
 30
0.0
 40
4.0
 50
180.0
 51
270.0
  0
ARC
  5
469
  8
GR1_01
  6
DASHED
 62
     4
 10
-756.3186617701825
 20
409.4484427012702
 30
0.0
 40
4.0
 50
90.0
 51
180.0000000000008
  0
ARC
  5
46A
  8
GR1_01
  6
DASHED
 62
     4
 10
-738.3186617701824
 20
409.44844270127
 30
0.0
 40
4.0
 50
0.0
 51
90.0
  0
ARC
  5
46B
  8
GR1_01
  6
DASHED
 62
     4
 10
-738.3186617701824
 20
398.4484427012702
 30
0.0
 40
4.0
 50
270.0
 51
0.0
  0
LINE
  5
46C
  8
GR1_01
  6
CONTINUOUS
 62
     3
 10
-736.6266949019913
 20
408.9484427012701
 30
0.0
 11
-736.6266949019913
 21
398.9484427012701
 31
0.0
  0
LINE
  5
46D
  8
GR1_01
  6
CONTINUOUS
 62
     3
 10
-746.4224985140187
 20
408.9484427012701
 30
0.0
 11
-746.4224985140187
 21
398.9484427012701
 31
0.0
  0
LINE
  5
46E
  8
GR1_01
  6
CONTINUOUS
 62
     3
 10
-746.4224985140187
 20
408.9484427012701
 30
0.0
 11
-736.6266949019913
 21
408.9484427012701
 31
0.0
  0
LINE
  5
46F
  8
GR1_01
  6
CONTINUOUS
 62
     3
 10
-736.6266949019913
 20
398.9484427012701
 30
0.0
 11
-746.4224985140187
 21
398.9484427012701
 31
0.0
  0
ENDBLK
  5
453
  8
0
  0
BLOCK
  8
0
  2
BLKF041
 70
     0
 10
0.0
 20
0.0
 30
0.0
  3
BLKF041
  1

  0
LINE
  5
487
  8
GR1_05
  6
DASHED
 62
     4
 10
-1102.380308622078
 20
399.9484427012701
 30
0.0
 11
-902.3803086220782
 21
399.9484427012701
 31
0.0
  0
LINE
  5
488
  8
GR1_05
  6
DASHED
 62
     4
 10
-1102.380308622078
 20
407.9484427012701
 30
0.0
 11
-902.3803086220782
 21
407.9484427012701
 31
0.0
  0
LINE
  5
489
  8
GR1_05
  6
DASHED
 62
     4
 10
-1102.380308622078
 20
398.9484427012701
 30
0.0
 11
-1092.380308622078
 21
398.9484427012701
 31
0.0
  0
LINE
  5
48A
  8
GR1_05
  6
DASHED
 62
     4
 10
-1102.380308622078
 20
408.9484427012701
 30
0.0
 11
-1092.380308622078
 21
408.9484427012701
 31
0.0
  0
LINE
  5
48B
  8
GR1_05
  6
DASHED
 62
     4
 10
-1092.380308622078
 20
398.9484427012701
 30
0.0
 11
-1092.380308622078
 21
408.9484427012701
 31
0.0
  0
LINE
  5
48C
  8
GR1_05
  6
DASHDOT
 62
     7
 10
-1102.380308622078
 20
403.9484427012701
 30
0.0
 11
-902.3803086220782
 21
403.9484427012701
 31
0.0
  0
LINE
  5
48D
  8
GR1_05
  6
DASHED
 62
     4
 10
-902.3803086220787
 20
398.9484427012701
 30
0.0
 11
-912.3803086220787
 21
398.9484427012701
 31
0.0
  0
LINE
  5
48E
  8
GR1_05
  6
DASHED
 62
     4
 10
-902.3803086220787
 20
408.9484427012701
 30
0.0
 11
-912.3803086220787
 21
408.9484427012701
 31
0.0
  0
LINE
  5
48F
  8
GR1_05
  6
DASHED
 62
     4
 10
-912.3803086220787
 20
398.9484427012701
 30
0.0
 11
-912.3803086220787
 21
408.9484427012701
 31
0.0
  0
ENDBLK
  5
484
  8
0
  0
BLOCK
  8
0
  2
BLKF042
 70
     0
 10
0.0
 20
0.0
 30
0.0
  3
BLKF042
  1

  0
LINE
  5
494
  8
GR1_05
  6
DASHED
 62
     4
 10
-1102.380308622078
 20
340.6470968353368
 30
0.0
 11
-902.3803086220782
 21
340.6470968353368
 31
0.0
  0
LINE
  5
495
  8
GR1_05
  6
DASHED
 62
     4
 10
-1102.380308622078
 20
348.6470968353368
 30
0.0
 11
-902.3803086220782
 21
348.6470968353368
 31
0.0
  0
LINE
  5
496
  8
GR1_05
  6
DASHED
 62
     4
 10
-1102.380308622078
 20
339.6470968353368
 30
0.0
 11
-1092.380308622078
 21
339.6470968353368
 31
0.0
  0
LINE
  5
497
  8
GR1_05
  6
DASHED
 62
     4
 10
-1102.380308622078
 20
349.6470968353368
 30
0.0
 11
-1092.380308622078
 21
349.6470968353368
 31
0.0
  0
LINE
  5
498
  8
GR1_05
  6
DASHED
 62
     4
 10
-1092.380308622078
 20
339.6470968353368
 30
0.0
 11
-1092.380308622078
 21
349.6470968353368
 31
0.0
  0
LINE
  5
499
  8
GR1_05
  6
DASHDOT
 62
     7
 10
-1102.380308622078
 20
344.6470968353368
 30
0.0
 11
-902.3803086220782
 21
344.6470968353368
 31
0.0
  0
LINE
  5
49A
  8
GR1_05
  6
DASHED
 62
     4
 10
-902.3803086220787
 20
339.6470968353368
 30
0.0
 11
-912.3803086220787
 21
339.6470968353368
 31
0.0
  0
LINE
  5
49B
  8
GR1_05
  6
DASHED
 62
     4
 10
-902.3803086220787
 20
349.6470968353368
 30
0.0
 11
-912.3803086220787
 21
349.6470968353368
 31
0.0
  0
LINE
  5
49C
  8
GR1_05
  6
DASHED
 62
     4
 10
-912.3803086220787
 20
339.6470968353368
 30
0.0
 11
-912.3803086220787
 21
349.6470968353368
 31
0.0
  0
ENDBLK
  5
492
  8
0
  0
BLOCK
  8
0
  2
BLKF043
 70
     0
 10
0.0
 20
0.0
 30
0.0
  3
BLKF043
  1

  0
LINE
  5
4A1
  8
GR1_05
  6
DASHED
 62
     4
 10
-823.0661697640185
 20
294.9484427012701
 30
0.0
 11
-623.0661697640185
 21
294.9484427012701
 31
0.0
  0
LINE
  5
4A2
  8
GR1_05
  6
DASHED
 62
     4
 10
-823.0661697640185
 20
302.9484427012701
 30
0.0
 11
-623.0661697640185
 21
302.9484427012701
 31
0.0
  0
LINE
  5
4A3
  8
GR1_05
  6
DASHED
 62
     4
 10
-823.0661697640185
 20
293.9484427012701
 30
0.0
 11
-813.0661697640185
 21
293.9484427012701
 31
0.0
  0
LINE
  5
4A4
  8
GR1_05
  6
DASHED
 62
     4
 10
-823.0661697640185
 20
303.9484427012701
 30
0.0
 11
-813.0661697640185
 21
303.9484427012701
 31
0.0
  0
LINE
  5
4A5
  8
GR1_05
  6
DASHED
 62
     4
 10
-813.0661697640185
 20
293.9484427012701
 30
0.0
 11
-813.0661697640185
 21
303.9484427012701
 31
0.0
  0
LINE
  5
4A6
  8
GR1_05
  6
DASHDOT
 62
     7
 10
-823.0661697640185
 20
298.9484427012701
 30
0.0
 11
-623.0661697640185
 21
298.9484427012701
 31
0.0
  0
LINE
  5
4A7
  8
GR1_05
  6
DASHED
 62
     4
 10
-623.0661697640189
 20
293.9484427012701
 30
0.0
 11
-633.0661697640189
 21
293.9484427012701
 31
0.0
  0
LINE
  5
4A8
  8
GR1_05
  6
DASHED
 62
     4
 10
-623.0661697640189
 20
303.9484427012701
 30
0.0
 11
-633.0661697640189
 21
303.9484427012701
 31
0.0
  0
LINE
  5
4A9
  8
GR1_05
  6
DASHED
 62
     4
 10
-633.0661697640189
 20
293.9484427012701
 30
0.0
 11
-633.0661697640189
 21
303.9484427012701
 31
0.0
  0
ENDBLK
  5
49F
  8
0
  0
BLOCK
  8
0
  2
BLKF044
 70
     0
 10
0.0
 20
0.0
 30
0.0
  3
BLKF044
  1

  0
LINE
  5
4AE
  8
GR1_05
  6
DASHED
 62
     4
 10
-823.0661697640185
 20
424.9484427012701
 30
0.0
 11
-623.0661697640185
 21
424.9484427012701
 31
0.0
  0
LINE
  5
4AF
  8
GR1_05
  6
DASHED
 62
     4
 10
-823.0661697640185
 20
432.9484427012701
 30
0.0
 11
-623.0661697640185
 21
432.9484427012701
 31
0.0
  0
LINE
  5
4B0
  8
GR1_05
  6
DASHED
 62
     4
 10
-823.0661697640185
 20
423.9484427012701
 30
0.0
 11
-813.0661697640185
 21
423.9484427012701
 31
0.0
  0
LINE
  5
4B1
  8
GR1_05
  6
DASHED
 62
     4
 10
-823.0661697640185
 20
433.9484427012701
 30
0.0
 11
-813.0661697640185
 21
433.9484427012701
 31
0.0
  0
LINE
  5
4B2
  8
GR1_05
  6
DASHED
 62
     4
 10
-813.0661697640185
 20
423.9484427012701
 30
0.0
 11
-813.0661697640185
 21
433.9484427012701
 31
0.0
  0
LINE
  5
4B3
  8
GR1_05
  6
DASHDOT
 62
     7
 10
-823.0661697640185
 20
428.9484427012701
 30
0.0
 11
-623.0661697640185
 21
428.9484427012701
 31
0.0
  0
LINE
  5
4B4
  8
GR1_05
  6
DASHED
 62
     4
 10
-623.0661697640189
 20
423.9484427012701
 30
0.0
 11
-633.0661697640189
 21
423.9484427012701
 31
0.0
  0
LINE
  5
4B5
  8
GR1_05
  6
DASHED
 62
     4
 10
-623.0661697640189
 20
433.9484427012701
 30
0.0
 11
-633.0661697640189
 21
433.9484427012701
 31
0.0
  0
LINE
  5
4B6
  8
GR1_05
  6
DASHED
 62
     4
 10
-633.0661697640189
 20
423.9484427012701
 30
0.0
 11
-633.0661697640189
 21
433.9484427012701
 31
0.0
  0
ENDBLK
  5
4AC
  8
0
  0
BLOCK
  8
0
  2
BLKF045
 70
     0
 10
0.0
 20
0.0
 30
0.0
  3
BLKF045
  1

  0
LINE
  5
4BB
  8
GR1_05
  6
DASHED
 62
     4
 10
-823.0661697640185
 20
147.5854146327275
 30
0.0
 11
-623.0661697640185
 21
147.5854146327275
 31
0.0
  0
LINE
  5
4BC
  8
GR1_05
  6
DASHED
 62
     4
 10
-823.0661697640185
 20
155.5854146327275
 30
0.0
 11
-623.0661697640185
 21
155.5854146327275
 31
0.0
  0
LINE
  5
4BD
  8
GR1_05
  6
DASHED
 62
     4
 10
-823.0661697640185
 20
146.5854146327275
 30
0.0
 11
-813.0661697640185
 21
146.5854146327275
 31
0.0
  0
LINE
  5
4BE
  8
GR1_05
  6
DASHED
 62
     4
 10
-823.0661697640185
 20
156.5854146327275
 30
0.0
 11
-813.0661697640185
 21
156.5854146327275
 31
0.0
  0
LINE
  5
4BF
  8
GR1_05
  6
DASHED
 62
     4
 10
-813.0661697640185
 20
146.5854146327275
 30
0.0
 11
-813.0661697640185
 21
156.5854146327275
 31
0.0
  0
LINE
  5
4C0
  8
GR1_05
  6
DASHDOT
 62
     7
 10
-823.0661697640185
 20
151.5854146327275
 30
0.0
 11
-623.0661697640185
 21
151.5854146327275
 31
0.0
  0
LINE
  5
4C1
  8
GR1_05
  6
DASHED
 62
     4
 10
-623.0661697640189
 20
146.5854146327275
 30
0.0
 11
-633.0661697640189
 21
146.5854146327275
 31
0.0
  0
LINE
  5
4C2
  8
GR1_05
  6
DASHED
 62
     4
 10
-623.0661697640189
 20
156.5854146327275
 30
0.0
 11
-633.0661697640189
 21
156.5854146327275
 31
0.0
  0
LINE
  5
4C3
  8
GR1_05
  6
DASHED
 62
     4
 10
-633.0661697640189
 20
146.5854146327275
 30
0.0
 11
-633.0661697640189
 21
156.5854146327275
 31
0.0
  0
ENDBLK
  5
4B9
  8
0
  0
BLOCK
  8
0
  2
BLKF046
 70
     0
 10
0.0
 20
0.0
 30
0.0
  3
BLKF046
  1

  0
LINE
  5
4C8
  8
GR1_05
  6
DASHED
 62
     4
 10
-541.7914157727278
 20
154.3354146327276
 30
0.0
 11
-381.9724643767731
 21
154.3354146327276
 31
0.0
  0
LINE
  5
4C9
  8
GR1_05
  6
DASHED
 62
     4
 10
-541.7914157727278
 20
162.3354146327276
 30
0.0
 11
-381.9724643767731
 21
162.3354146327276
 31
0.0
  0
LINE
  5
4CA
  8
GR1_05
  6
DASHED
 62
     4
 10
-541.7914157727278
 20
153.3354146327276
 30
0.0
 11
-531.7914157727278
 21
153.3354146327276
 31
0.0
  0
LINE
  5
4CB
  8
GR1_05
  6
DASHED
 62
     4
 10
-541.7914157727278
 20
163.3354146327276
 30
0.0
 11
-531.7914157727278
 21
163.3354146327276
 31
0.0
  0
LINE
  5
4CC
  8
GR1_05
  6
DASHED
 62
     4
 10
-531.7914157727278
 20
153.3354146327276
 30
0.0
 11
-531.7914157727278
 21
163.3354146327276
 31
0.0
  0
LINE
  5
4CD
  8
GR1_05
  6
DASHDOT
 62
     7
 10
-541.7914157727278
 20
158.3354146327276
 30
0.0
 11
-381.9724643767731
 21
158.3354146327276
 31
0.0
  0
ENDBLK
  5
4C6
  8
0
  0
BLOCK
  8
0
  2
BLKF047
 70
     0
 10
0.0
 20
0.0
 30
0.0
  3
BLKF047
  1

  0
LINE
  5
4D2
  8
GR1_05
  6
DASHED
 62
     4
 10
-541.7914157727278
 20
56.0272119201652
 30
0.0
 11
-452.9161691371328
 21
56.0272119201652
 31
0.0
  0
LINE
  5
4D3
  8
GR1_05
  6
DASHED
 62
     4
 10
-541.7914157727278
 20
64.0272119201652
 30
0.0
 11
-452.9161691371328
 21
64.0272119201652
 31
0.0
  0
LINE
  5
4D4
  8
GR1_05
  6
DASHED
 62
     4
 10
-541.7914157727278
 20
55.0272119201652
 30
0.0
 11
-531.7914157727278
 21
55.0272119201652
 31
0.0
  0
LINE
  5
4D5
  8
GR1_05
  6
DASHED
 62
     4
 10
-541.7914157727278
 20
65.0272119201652
 30
0.0
 11
-531.7914157727278
 21
65.0272119201652
 31
0.0
  0
LINE
  5
4D6
  8
GR1_05
  6
DASHED
 62
     4
 10
-531.7914157727278
 20
55.0272119201652
 30
0.0
 11
-531.7914157727278
 21
65.0272119201652
 31
0.0
  0
LINE
  5
4D7
  8
GR1_05
  6
DASHDOT
 62
     7
 10
-541.7914157727278
 20
60.0272119201652
 30
0.0
 11
-452.9161691371328
 21
60.0272119201652
 31
0.0
  0
ENDBLK
  5
4D0
  8
0
  0
BLOCK
  8
0
  2
BLKF048
 70
     0
 10
0.0
 20
0.0
 30
0.0
  3
BLKF048
  1

  0
LINE
  5
4DC
  8
GR1_05
  6
CONTINUOUS
 62
     7
 10
-764.0661697640182
 20
121.0024656991534
 30
0.0
 11
-782.0661697640181
 21
121.0024656991531
 31
0.0
  0
LINE
  5
4DD
  8
GR1_05
  6
CONTINUOUS
 62
     7
 10
-782.0661697640181
 20
121.0024656991531
 30
0.0
 11
-782.0661697640178
 21
147.5854146327261
 31
0.0
  0
LINE
  5
4DE
  8
GR1_05
  6
CONTINUOUS
 62
     7
 10
-764.0661697640185
 20
175.8063132764462
 30
0.0
 11
-764.0661697640188
 21
155.5854146327274
 31
0.0
  0
LINE
  5
4DF
  8
GR1_05
  6
CONTINUOUS
 62
     7
 10
-763.0661697640182
 20
160.8063132764462
 30
0.0
 11
-783.0661697640182
 21
160.8063132764478
 31
0.0
  0
LINE
  5
4E0
  8
GR1_05
  6
CONTINUOUS
 62
     7
 10
-783.0661697640182
 20
160.8063132764478
 30
0.0
 11
-783.0661697640185
 21
175.8063132764478
 31
0.0
  0
LINE
  5
4E1
  8
GR1_05
  6
DASHDOT
 62
     7
 10
-773.0661697640185
 20
115.8063132764463
 30
0.0
 11
-773.0661697640185
 21
175.8063132764463
 31
0.0
  0
LINE
  5
4E2
  8
GR1_05
  6
CONTINUOUS
 62
     7
 10
-763.0661697640182
 20
160.806313276448
 30
0.0
 11
-763.0661697640185
 21
175.806313276448
 31
0.0
  0
LINE
  5
4E3
  8
GR1_05
  6
CONTINUOUS
 62
     7
 10
-783.0661697640182
 20
160.8063132764478
 30
0.0
 11
-763.0661697640185
 21
175.806313276448
 31
0.0
  0
LINE
  5
4E4
  8
GR1_05
  6
CONTINUOUS
 62
     7
 10
-763.0661697640182
 20
160.806313276448
 30
0.0
 11
-783.0661697640185
 21
175.8063132764478
 31
0.0
  0
LINE
  5
4E5
  8
GR1_05
  6
CONTINUOUS
 62
     7
 10
-772.0661697640197
 20
126.002465699153
 30
0.0
 11
-774.0661697640179
 21
126.0024656991531
 31
0.0
  0
LINE
  5
4E6
  8
GR1_05
  6
CONTINUOUS
 62
     7
 10
-774.0661697640179
 20
126.0024656991531
 30
0.0
 11
-774.0661697640182
 21
160.8063132764468
 31
0.0
  0
LINE
  5
4E7
  8
GR1_05
  6
CONTINUOUS
 62
     7
 10
-772.0661697640179
 20
126.002465699153
 30
0.0
 11
-772.0661697640182
 21
160.8063132764467
 31
0.0
  0
LINE
  5
4E8
  8
GR1_05
  6
CONTINUOUS
 62
     7
 10
-782.0661697640188
 20
155.5854146327302
 30
0.0
 11
-782.0661697640185
 21
175.8063132764473
 31
0.0
  0
LINE
  5
4E9
  8
GR1_05
  6
CONTINUOUS
 62
     7
 10
-764.0661697640177
 20
147.5854146327275
 30
0.0
 11
-764.0661697640182
 21
121.0024656991534
 31
0.0
  0
LINE
  5
4EA
  8
GR1_05
  6
CONTINUOUS
 62
     7
 10
-782.0661697640188
 20
155.5854146327302
 30
0.0
 11
-779.1794184180709
 21
151.5854146327269
 31
0.0
  0
LINE
  5
4EB
  8
GR1_05
  6
CONTINUOUS
 62
     7
 10
-782.0661697640178
 20
147.5854146327261
 30
0.0
 11
-779.1794184180709
 21
151.5854146327269
 31
0.0
  0
LINE
  5
4EC
  8
GR1_05
  6
CONTINUOUS
 62
     7
 10
-764.0661697640188
 20
155.5854146327274
 30
0.0
 11
-766.9529211099635
 21
151.5854146327275
 31
0.0
  0
LINE
  5
4ED
  8
GR1_05
  6
CONTINUOUS
 62
     7
 10
-764.0661697640177
 20
147.5854146327275
 30
0.0
 11
-766.9529211099638
 21
151.5854146327275
 31
0.0
  0
LINE
  5
4EE
  8
GR1_05
  6
CONTINUOUS
 62
     7
 10
-782.0661697640154
 20
121.0024656991515
 30
0.0
 11
-773.0661697640185
 21
115.8063132764463
 31
0.0
  0
LINE
  5
4EF
  8
GR1_05
  6
CONTINUOUS
 62
     7
 10
-764.0661697640214
 20
121.0024656991516
 30
0.0
 11
-773.0661697640185
 21
115.8063132764463
 31
0.0
  0
ENDBLK
  5
4DA
  8
0
  0
BLOCK
  8
0
  2
BLKF049
 70
     0
 10
0.0
 20
0.0
 30
0.0
  3
BLKF049
  1

  0
LINE
  5
4F4
  8
GR1_05
  6
CONTINUOUS
 62
     7
 10
-682.0661697640187
 20
121.0024656991534
 30
0.0
 11
-664.0661697640188
 21
121.0024656991531
 31
0.0
  0
LINE
  5
4F5
  8
GR1_05
  6
CONTINUOUS
 62
     7
 10
-664.0661697640188
 20
121.0024656991531
 30
0.0
 11
-664.0661697640192
 21
147.5854146327261
 31
0.0
  0
LINE
  5
4F6
  8
GR1_05
  6
CONTINUOUS
 62
     7
 10
-682.0661697640185
 20
175.8063132764462
 30
0.0
 11
-682.0661697640181
 21
155.5854146327274
 31
0.0
  0
LINE
  5
4F7
  8
GR1_05
  6
CONTINUOUS
 62
     7
 10
-683.0661697640187
 20
160.8063132764462
 30
0.0
 11
-663.0661697640187
 21
160.8063132764478
 31
0.0
  0
LINE
  5
4F8
  8
GR1_05
  6
CONTINUOUS
 62
     7
 10
-663.0661697640187
 20
160.8063132764478
 30
0.0
 11
-663.0661697640185
 21
175.8063132764478
 31
0.0
  0
LINE
  5
4F9
  8
GR1_05
  6
DASHDOT
 62
     7
 10
-673.0661697640185
 20
115.8063132764463
 30
0.0
 11
-673.0661697640185
 21
175.8063132764463
 31
0.0
  0
LINE
  5
4FA
  8
GR1_05
  6
CONTINUOUS
 62
     7
 10
-683.0661697640187
 20
160.806313276448
 30
0.0
 11
-683.0661697640185
 21
175.806313276448
 31
0.0
  0
LINE
  5
4FB
  8
GR1_05
  6
CONTINUOUS
 62
     7
 10
-663.0661697640187
 20
160.8063132764478
 30
0.0
 11
-683.0661697640185
 21
175.806313276448
 31
0.0
  0
LINE
  5
4FC
  8
GR1_05
  6
CONTINUOUS
 62
     7
 10
-683.0661697640187
 20
160.806313276448
 30
0.0
 11
-663.0661697640185
 21
175.8063132764478
 31
0.0
  0
LINE
  5
4FD
  8
GR1_05
  6
CONTINUOUS
 62
     7
 10
-674.0661697640172
 20
126.002465699153
 30
0.0
 11
-672.066169764019
 21
126.0024656991531
 31
0.0
  0
LINE
  5
4FE
  8
GR1_05
  6
CONTINUOUS
 62
     7
 10
-672.066169764019
 20
126.0024656991531
 30
0.0
 11
-672.0661697640187
 21
160.8063132764468
 31
0.0
  0
LINE
  5
4FF
  8
GR1_05
  6
CONTINUOUS
 62
     7
 10
-674.066169764019
 20
126.002465699153
 30
0.0
 11
-674.0661697640187
 21
160.8063132764467
 31
0.0
  0
LINE
  5
500
  8
GR1_05
  6
CONTINUOUS
 62
     7
 10
-664.0661697640181
 20
155.5854146327302
 30
0.0
 11
-664.0661697640185
 21
175.8063132764473
 31
0.0
  0
LINE
  5
501
  8
GR1_05
  6
CONTINUOUS
 62
     7
 10
-682.0661697640193
 20
147.5854146327275
 30
0.0
 11
-682.0661697640187
 21
121.0024656991534
 31
0.0
  0
LINE
  5
502
  8
GR1_05
  6
CONTINUOUS
 62
     7
 10
-664.0661697640181
 20
155.5854146327302
 30
0.0
 11
-666.952921109966
 21
151.5854146327269
 31
0.0
  0
LINE
  5
503
  8
GR1_05
  6
CONTINUOUS
 62
     7
 10
-664.0661697640192
 20
147.5854146327261
 30
0.0
 11
-666.952921109966
 21
151.5854146327269
 31
0.0
  0
LINE
  5
504
  8
GR1_05
  6
CONTINUOUS
 62
     7
 10
-682.0661697640181
 20
155.5854146327274
 30
0.0
 11
-679.1794184180734
 21
151.5854146327275
 31
0.0
  0
LINE
  5
505
  8
GR1_05
  6
CONTINUOUS
 62
     7
 10
-682.0661697640193
 20
147.5854146327275
 30
0.0
 11
-679.1794184180732
 21
151.5854146327275
 31
0.0
  0
LINE
  5
506
  8
GR1_05
  6
CONTINUOUS
 62
     7
 10
-664.0661697640215
 20
121.0024656991515
 30
0.0
 11
-673.0661697640185
 21
115.8063132764463
 31
0.0
  0
LINE
  5
507
  8
GR1_05
  6
CONTINUOUS
 62
     7
 10
-682.0661697640155
 20
121.0024656991516
 30
0.0
 11
-673.0661697640185
 21
115.8063132764463
 31
0.0
  0
ENDBLK
  5
4F2
  8
0
  0
BLOCK
  8
0
  2
BLKF050
 70
     0
 10
0.0
 20
0.0
 30
0.0
  3
BLKF050
  1

  0
CIRCLE
  5
51D
  8
GR1_05
  6
DASHED
 62
     4
 10
-952.3803086220782
 20
403.9484427012701
 30
0.0
 40
9.0
  0
CIRCLE
  5
51E
  8
GR1_05
  6
DASHED
 62
     4
 10
-952.3803086220782
 20
403.9484427012701
 30
0.0
 40
10.0
  0
LINE
  5
51F
  8
GR1_05
  6
DASHDOT
 62
     7
 10
-962.3803086220782
 20
403.9484427012701
 30
0.0
 11
-942.3803086220782
 21
403.9484427012701
 31
0.0
  0
LINE
  5
520
  8
GR1_05
  6
DASHDOT
 62
     7
 10
-952.380308622078
 20
413.9484427012701
 30
0.0
 11
-952.380308622078
 21
393.9484427012701
 31
0.0
  0
LINE
  5
521
  8
GR1_05
  6
DASHED
 62
     4
 10
-951.380308622078
 20
412.8839133041167
 30
0.0
 11
-951.380308622078
 21
395.0119889493976
 31
0.0
  0
LINE
  5
522
  8
GR1_05
  6
DASHED
 62
     4
 10
-953.380308622078
 20
412.8839133041167
 30
0.0
 11
-953.380308622078
 21
395.0119889493976
 31
0.0
  0
ENDBLK
  5
51B
  8
0
  0
BLOCK
  8
0
  2
BLKF051
 70
     0
 10
0.0
 20
0.0
 30
0.0
  3
BLKF051
  1

  0
CIRCLE
  5
527
  8
GR1_05
  6
DASHED
 62
     4
 10
-1052.380308622078
 20
403.9484427012701
 30
0.0
 40
9.0
  0
CIRCLE
  5
528
  8
GR1_05
  6
DASHED
 62
     4
 10
-1052.380308622078
 20
403.9484427012701
 30
0.0
 40
10.0
  0
LINE
  5
529
  8
GR1_05
  6
DASHDOT
 62
     7
 10
-1042.380308622078
 20
403.9484427012701
 30
0.0
 11
-1062.380308622078
 21
403.9484427012701
 31
0.0
  0
LINE
  5
52A
  8
GR1_05
  6
DASHDOT
 62
     7
 10
-1052.380308622078
 20
413.9484427012701
 30
0.0
 11
-1052.380308622078
 21
393.9484427012701
 31
0.0
  0
LINE
  5
52B
  8
GR1_05
  6
DASHED
 62
     4
 10
-1053.380308622078
 20
412.8839133041167
 30
0.0
 11
-1053.380308622078
 21
395.0119889493976
 31
0.0
  0
LINE
  5
52C
  8
GR1_05
  6
DASHED
 62
     4
 10
-1051.380308622078
 20
412.8839133041167
 30
0.0
 11
-1051.380308622078
 21
395.0119889493976
 31
0.0
  0
ENDBLK
  5
525
  8
0
  0
BLOCK
  8
0
  2
BLKF052
 70
     0
 10
0.0
 20
0.0
 30
0.0
  3
BLKF052
  1

  0
CIRCLE
  5
531
  8
GR1_05
  6
DASHED
 62
     4
 10
-967.3803086220782
 20
344.6470968353368
 30
0.0
 40
9.0
  0
CIRCLE
  5
532
  8
GR1_05
  6
DASHED
 62
     4
 10
-967.3803086220782
 20
344.6470968353368
 30
0.0
 40
10.0
  0
LINE
  5
533
  8
GR1_05
  6
DASHDOT
 62
     7
 10
-977.3803086220782
 20
344.6470968353368
 30
0.0
 11
-957.3803086220782
 21
344.6470968353368
 31
0.0
  0
LINE
  5
534
  8
GR1_05
  6
DASHDOT
 62
     7
 10
-967.380308622078
 20
354.6470968353368
 30
0.0
 11
-967.380308622078
 21
334.6470968353368
 31
0.0
  0
LINE
  5
535
  8
GR1_05
  6
DASHED
 62
     4
 10
-966.380308622078
 20
353.5825674381834
 30
0.0
 11
-966.380308622078
 21
335.7106430834643
 31
0.0
  0
LINE
  5
536
  8
GR1_05
  6
DASHED
 62
     4
 10
-968.380308622078
 20
353.5825674381834
 30
0.0
 11
-968.380308622078
 21
335.7106430834643
 31
0.0
  0
ENDBLK
  5
52F
  8
0
  0
BLOCK
  8
0
  2
BLKF053
 70
     0
 10
0.0
 20
0.0
 30
0.0
  3
BLKF053
  1

  0
CIRCLE
  5
53B
  8
GR1_05
  6
DASHED
 62
     4
 10
-1037.380308622078
 20
344.6470968353368
 30
0.0
 40
9.0
  0
CIRCLE
  5
53C
  8
GR1_05
  6
DASHED
 62
     4
 10
-1037.380308622078
 20
344.6470968353368
 30
0.0
 40
10.0
  0
LINE
  5
53D
  8
GR1_05
  6
DASHDOT
 62
     7
 10
-1027.380308622078
 20
344.6470968353368
 30
0.0
 11
-1047.380308622078
 21
344.6470968353368
 31
0.0
  0
LINE
  5
53E
  8
GR1_05
  6
DASHDOT
 62
     7
 10
-1037.380308622078
 20
354.6470968353368
 30
0.0
 11
-1037.380308622078
 21
334.6470968353368
 31
0.0
  0
LINE
  5
53F
  8
GR1_05
  6
DASHED
 62
     4
 10
-1038.380308622078
 20
353.5825674381834
 30
0.0
 11
-1038.380308622078
 21
335.7106430834643
 31
0.0
  0
LINE
  5
540
  8
GR1_05
  6
DASHED
 62
     4
 10
-1036.380308622078
 20
353.5825674381834
 30
0.0
 11
-1036.380308622078
 21
335.7106430834643
 31
0.0
  0
ENDBLK
  5
539
  8
0
  0
BLOCK
  8
0
  2
BLKF054
 70
     0
 10
0.0
 20
0.0
 30
0.0
  3
BLKF054
  1

  0
ARC
  5
548
  8
GR1_01
  6
CONTINUOUS
 62
     3
 10
-449.8828358037995
 20
58.0272119201652
 30
0.0
 40
3.633333333333308
 50
146.6015115320125
 51
213.3984884679875
  0
ARC
  5
549
  8
GR1_01
  6
CONTINUOUS
 62
     3
 10
-455.949502470466
 20
62.0272119201652
 30
0.0
 40
3.633333333333213
 50
326.6015115320116
 51
33.39848846798848
  0
ARC
  5
54A
  8
GR1_01
  6
CONTINUOUS
 62
     3
 10
-449.8828358037995
 20
62.0272119201652
 30
0.0
 40
3.633333333333308
 50
146.6015115320125
 51
213.3984884679875
  0
ENDBLK
  5
546
  8
0
  0
BLOCK
  8
0
  2
BLKF055
 70
     0
 10
0.0
 20
0.0
 30
0.0
  3
BLKF055
  1

  0
ARC
  5
54F
  8
GR1_01
  6
CONTINUOUS
 62
     3
 10
-385.0057977101063
 20
160.3354146327276
 30
0.0
 40
3.633333333333213
 50
326.6015115320116
 51
33.39848846798848
  0
ARC
  5
550
  8
GR1_01
  6
CONTINUOUS
 62
     3
 10
-378.9391310434398
 20
156.3354146327276
 30
0.0
 40
3.633333333333308
 50
146.6015115320125
 51
213.3984884679875
  0
ARC
  5
551
  8
GR1_01
  6
CONTINUOUS
 62
     3
 10
-385.0057977101063
 20
156.3354146327276
 30
0.0
 40
3.633333333333213
 50
326.6015115320116
 51
33.39848846798848
  0
ENDBLK
  5
54D
  8
0
  0
BLOCK
  8
0
  2
BLKF056
 70
     0
 10
0.0
 20
0.0
 30
0.0
  3
BLKF056
  1

  0
LINE
  5
556
  8
GR1_05
  6
DASHED
 62
     4
 10
-823.0661697640185
 20
56.0272119201652
 30
0.0
 11
-754.8898153029266
 21
56.0272119201652
 31
0.0
  0
LINE
  5
557
  8
GR1_05
  6
DASHED
 62
     4
 10
-823.0661697640185
 20
64.0272119201652
 30
0.0
 11
-754.8898153029266
 21
64.0272119201652
 31
0.0
  0
LINE
  5
558
  8
GR1_05
  6
DASHED
 62
     4
 10
-823.0661697640185
 20
55.0272119201652
 30
0.0
 11
-813.0661697640185
 21
55.0272119201652
 31
0.0
  0
LINE
  5
559
  8
GR1_05
  6
DASHED
 62
     4
 10
-823.0661697640185
 20
65.0272119201652
 30
0.0
 11
-813.0661697640185
 21
65.0272119201652
 31
0.0
  0
LINE
  5
55A
  8
GR1_05
  6
DASHED
 62
     4
 10
-813.0661697640185
 20
55.0272119201652
 30
0.0
 11
-813.0661697640185
 21
65.0272119201652
 31
0.0
  0
LINE
  5
55B
  8
GR1_05
  6
DASHDOT
 62
     7
 10
-823.0661697640185
 20
60.0272119201652
 30
0.0
 11
-754.8898153029266
 21
60.0272119201652
 31
0.0
  0
ENDBLK
  5
554
  8
0
  0
BLOCK
  8
0
  2
BLKF057
 70
     0
 10
0.0
 20
0.0
 30
0.0
  3
BLKF057
  1

  0
ARC
  5
560
  8
GR1_01
  6
CONTINUOUS
 62
     3
 10
-751.8564819695933
 20
58.0272119201652
 30
0.0
 40
3.633333333333308
 50
146.6015115320125
 51
213.3984884679875
  0
ARC
  5
561
  8
GR1_01
  6
CONTINUOUS
 62
     3
 10
-757.9231486362598
 20
62.0272119201652
 30
0.0
 40
3.633333333333213
 50
326.6015115320116
 51
33.39848846798848
  0
ARC
  5
562
  8
GR1_01
  6
CONTINUOUS
 62
     3
 10
-751.8564819695933
 20
62.0272119201652
 30
0.0
 40
3.633333333333308
 50
146.6015115320125
 51
213.3984884679875
  0
ENDBLK
  5
55E
  8
0
  0
BLOCK
  8
0
  2
BLKF058
 70
     0
 10
0.0
 20
0.0
 30
0.0
  3
BLKF058
  1

  0
LINE
  5
5AD
  8
GR1_06
  6
CONTINUOUS
 62
     7
 10
-346.6359689465413
 20
366.9636270112701
 30
0.0
 11
-457.6359689465413
 21
366.9636270112701
 31
0.0
  0
LINE
  5
5AE
  8
GR1_06
  6
CONTINUOUS
 62
     7
 10
-340.6359689465413
 20
368.9636270112701
 30
0.0
 11
-346.6359689465413
 21
368.9636270112701
 31
0.0
  0
LINE
  5
5AF
  8
GR1_06
  6
CONTINUOUS
 62
     7
 10
-340.6359689465413
 20
369.4636270112701
 30
0.0
 11
-346.6359689465413
 21
369.4636270112701
 31
0.0
  0
LINE
  5
5B0
  8
GR1_06
  6
CONTINUOUS
 62
     7
 10
-346.6359689465413
 20
367.4636270112701
 30
0.0
 11
-355.6359689465413
 21
367.46362701127
 31
0.0
  0
LINE
  5
5B1
  8
GR1_06
  6
CONTINUOUS
 62
     7
 10
-346.6359689465413
 20
360.963627011271
 30
0.0
 11
-457.6359689465413
 21
360.9636270112679
 31
0.0
  0
LINE
  5
5B2
  8
GR1_06
  6
CONTINUOUS
 62
     7
 10
-340.6359689465413
 20
358.9636270112701
 30
0.0
 11
-346.6359689465413
 21
358.9636270112701
 31
0.0
  0
LINE
  5
5B3
  8
GR1_06
  6
CONTINUOUS
 62
     7
 10
-340.6359689465413
 20
358.4636270112701
 30
0.0
 11
-346.6359689465413
 21
358.4636270112701
 31
0.0
  0
LINE
  5
5B4
  8
GR1_06
  6
CONTINUOUS
 62
     7
 10
-346.6359689465413
 20
360.463627011271
 30
0.0
 11
-355.6359689465413
 21
360.4636270112709
 31
0.0
  0
LINE
  5
5B5
  8
GR1_06
  6
CONTINUOUS
 62
     7
 10
-346.6359689465413
 20
358.4636270112701
 30
0.0
 11
-346.6359689465413
 21
369.4636270112701
 31
0.0
  0
ENDBLK
  5
5AB
  8
0
  0
ENDSEC
  0
SECTION
  2
ENTITIES
  0
POINT
  5
DE
  8
17
  6
CONTINUOUS
 62
     3
 10
-460.6359689465413
 20
363.9484427012701
 30
0.0
  0
LINE
  5
E0
  8
99
  6
CONTINUOUS
 62
     3
 10
-487.2623179465412
 20
404.6661560812702
 30
0.0
 11
-487.2724699765412
 21
404.6661560812702
 31
0.0
  0
LINE
  5
E1
  8
99
  6
CONTINUOUS
 62
     3
 10
-487.2724699765412
 20
403.23072932127
 30
0.0
 11
-487.2623179465412
 21
403.23072932127
 31
0.0
  0
ARC
  5
E2
  8
99
  6
CONTINUOUS
 62
     3
 10
-460.6287199765412
 20
474.9871136712702
 30
0.0
 40
94.395
 50
268.9768067
 51
269.99560003
  0
ARC
  5
E3
  8
99
  6
CONTINUOUS
 62
     3
 10
-460.6287199765412
 20
332.90977173127
 30
0.0
 40
96.425
 50
90.00430734000005
 51
91.02319329999999
  0
ARC
  5
E4
  8
99
  6
CONTINUOUS
 62
     3
 10
-460.6287199765412
 20
474.9871136712702
 30
0.0
 40
96.425
 50
268.9768067
 51
269.99569266
  0
ARC
  5
E5
  8
99
  6
CONTINUOUS
 62
     3
 10
-460.6287199765412
 20
332.90977173127
 30
0.0
 40
94.395
 50
90.00439996999997
 51
91.02319330000003
  0
ARC
  5
E6
  8
99
  6
CONTINUOUS
 62
     3
 10
-461.8974699765412
 20
403.9484427012701
 30
0.0
 40
25.375
 50
91.02319329999986
 51
178.3792144799998
  0
ARC
  5
E7
  8
99
  6
CONTINUOUS
 62
     3
 10
-461.8974699765412
 20
403.9484427012701
 30
0.0
 40
25.375
 50
181.6207855200003
 51
268.9768067000001
  0
LINE
  5
E8
  8
99
  6
CONTINUOUS
 62
     3
 10
-487.2724699765412
 20
404.6661560812702
 30
0.0
 11
-487.2724699765412
 21
403.23072932127
 31
0.0
  0
ARC
  5
E9
  8
99
  6
CONTINUOUS
 62
     3
 10
-461.8974699765412
 20
403.9484427012701
 30
0.0
 40
23.345
 50
91.02319329999996
 51
268.9768067000001
  0
ARC
  5
EA
  8
99
  6
CONTINUOUS
 62
     3
 10
-481.7258027165414
 20
323.9484427012701
 30
0.0
 40
20.3
 50
104.9485110300003
 51
255.0514889699997
  0
ARC
  5
EB
  8
99
  6
CONTINUOUS
 62
     3
 10
-460.6432179165412
 20
394.9871136712702
 30
0.0
 40
96.425
 50
253.82317465
 51
270.00430734
  0
ARC
  5
EC
  8
99
  6
CONTINUOUS
 62
     3
 10
-460.6432179165412
 20
252.90977173127
 30
0.0
 40
96.425
 50
89.99569265999996
 51
106.17682535
  0
ARC
  5
ED
  8
99
  6
CONTINUOUS
 62
     3
 10
-481.7258027165414
 20
323.9484427012701
 30
0.0
 40
22.33
 50
105.0059724599998
 51
254.9940275400002
  0
ARC
  5
EE
  8
99
  6
CONTINUOUS
 62
     3
 10
-460.6432179165412
 20
394.9871136712702
 30
0.0
 40
94.395
 50
253.8103513599999
 51
270.00439997
  0
ARC
  5
EF
  8
99
  6
CONTINUOUS
 62
     3
 10
-460.6432179165412
 20
252.90977173127
 30
0.0
 40
94.395
 50
89.99560003000005
 51
106.18964864
  0
LINE
  5
F1
  8
200
  6
CONTINUOUS
 62
     3
 10
-530.6359689465413
 20
488.9484427012701
 30
0.0
 11
-555.6359689465413
 21
488.9484427012701
 31
0.0
  0
LINE
  5
F2
  8
200
  6
CONTINUOUS
 62
     3
 10
-555.6359689465413
 20
238.9484427012701
 30
0.0
 11
-530.6359689465413
 21
238.9484427012701
 31
0.0
  0
LINE
  5
F3
  8
200
  6
CONTINUOUS
 62
     3
 10
-555.6359689465413
 20
488.9484427012701
 30
0.0
 11
-555.6359689465413
 21
413.9636270112701
 31
0.0
  0
LINE
  5
F5
  8
250
  6
CONTINUOUS
 62
     3
 10
-460.6359689465413
 20
488.9484427012701
 30
0.0
 11
-530.6359689465413
 21
488.9484427012701
 31
0.0
  0
LINE
  5
F6
  8
250
  6
CONTINUOUS
 62
     3
 10
-530.6359689465413
 20
238.9484427012701
 30
0.0
 11
-460.6359689465413
 21
238.9484427012701
 31
0.0
  0
LINE
  5
F7
  8
250
  6
CONTINUOUS
 62
     3
 10
-460.6359689465413
 20
238.9484427012701
 30
0.0
 11
-460.6359689465413
 21
300.5921139496089
 31
0.0
  0
LINE
  5
F8
  8
250
  6
CONTINUOUS
 62
     3
 10
-530.6359689465413
 20
488.9484427012701
 30
0.0
 11
-530.6359689465413
 21
385.96362701127
 31
0.0
  0
LINE
  5
FA
  8
GR1_02
  6
CONTINUOUS
 62
     3
 10
-555.6359689465413
 20
328.9636267012702
 30
0.0
 11
-530.6359689465413
 21
328.9636267012702
 31
0.0
  0
LINE
  5
FB
  8
GR1_02
  6
CONTINUOUS
 62
     3
 10
-530.6359689465413
 20
398.9636267012702
 30
0.0
 11
-555.6359689465413
 21
398.9636267012702
 31
0.0
  0
LINE
  5
FC
  8
GR1_02
  6
CONTINUOUS
 62
     3
 10
-460.6359689465413
 20
355.9636270112701
 30
0.0
 11
-460.6359689465413
 21
371.9636270112701
 31
0.0
  0
LINE
  5
FD
  8
GR1_02
  6
CONTINUOUS
 62
     3
 10
-530.6359689465413
 20
355.9636270112701
 30
0.0
 11
-463.6359689465413
 21
355.9636270112701
 31
0.0
  0
LINE
  5
FE
  8
GR1_02
  6
CONTINUOUS
 62
     3
 10
-463.6359689465413
 20
371.9636270112701
 30
0.0
 11
-530.6359689465413
 21
371.9636270112701
 31
0.0
  0
LINE
  5
FF
  8
GR1_02
  6
CONTINUOUS
 62
     3
 10
-550.6359689465413
 20
313.9636270112701
 30
0.0
 11
-550.6359689465413
 21
318.4636270112701
 31
0.0
  0
LINE
  5
100
  8
GR1_02
  6
CONTINUOUS
 62
     3
 10
-555.6359689465413
 20
313.9636270112701
 30
0.0
 11
-550.6359689465413
 21
313.9636270112701
 31
0.0
  0
LINE
  5
101
  8
GR1_02
  6
CONTINUOUS
 62
     3
 10
-530.6359689465413
 20
342.5051270112701
 30
0.0
 11
-530.6359689465413
 21
347.42212701127
 31
0.0
  0
LINE
  5
103
  8
GR1_12
  6
CONTINUOUS
 62
     3
 10
-545.6359689465413
 20
388.9636270112701
 30
0.0
 11
-545.6359689465413
 21
338.9636270112701
 31
0.0
  0
LINE
  5
104
  8
GR1_12
  6
CONTINUOUS
 62
     3
 10
-530.6359689465413
 20
371.9636270112701
 30
0.0
 11
-530.6359689465413
 21
379.7136270112701
 31
0.0
  0
LINE
  5
105
  8
GR1_12
  6
CONTINUOUS
 62
     3
 10
-530.6359689465413
 20
348.2136270112701
 30
0.0
 11
-530.6359689465413
 21
355.9636270112701
 31
0.0
  0
LINE
  5
106
  8
GR1_12
  6
CONTINUOUS
 62
     3
 10
-530.6359689465413
 20
338.9636270112701
 30
0.0
 11
-530.6359689465413
 21
341.7136270112701
 31
0.0
  0
LINE
  5
107
  8
GR1_12
  6
CONTINUOUS
 62
     3
 10
-545.6359689465413
 20
338.9636270112701
 30
0.0
 11
-530.6359689465413
 21
338.9636270112701
 31
0.0
  0
LINE
  5
108
  8
GR1_12
  6
CONTINUOUS
 62
     3
 10
-460.6359689465413
 20
367.1104574112701
 30
0.0
 11
-460.6359689465413
 21
371.9636270112701
 31
0.0
  0
LINE
  5
109
  8
GR1_12
  6
CONTINUOUS
 62
     3
 10
-460.6359689465413
 20
355.9636270112701
 30
0.0
 11
-460.6359689465413
 21
360.8167966112701
 31
0.0
  0
LINE
  5
10A
  8
GR1_12
  6
CONTINUOUS
 62
     3
 10
-539.1359689465413
 20
339.4636270112701
 30
0.0
 11
-539.1359689465413
 21
341.9636270112701
 31
0.0
  0
LINE
  5
10B
  8
GR1_12
  6
CONTINUOUS
 62
     3
 10
-539.1359689465413
 20
350.4636270112701
 30
0.0
 11
-539.1359689465413
 21
347.9636270112701
 31
0.0
  0
LINE
  5
10C
  8
GR1_12
  6
CONTINUOUS
 62
     3
 10
-539.1359689465413
 20
339.4636270112701
 30
0.0
 11
-545.6359689465413
 21
339.4636270112701
 31
0.0
  0
LINE
  5
10D
  8
GR1_12
  6
CONTINUOUS
 62
     3
 10
-545.6359689465413
 20
350.4636270112701
 30
0.0
 11
-539.1359689465413
 21
350.4636270112701
 31
0.0
  0
LINE
  5
10E
  8
GR1_12
  6
CONTINUOUS
 62
     3
 10
-530.6359689465413
 20
341.7136270112701
 30
0.0
 11
-539.1359689465413
 21
341.7136270112701
 31
0.0
  0
LINE
  5
10F
  8
GR1_12
  6
CONTINUOUS
 62
     3
 10
-539.1359689465413
 20
348.2136270112701
 30
0.0
 11
-530.6359689465413
 21
348.2136270112701
 31
0.0
  0
LINE
  5
110
  8
GR1_12
  6
CONTINUOUS
 62
     3
 10
-463.6359689465413
 20
360.8691777511575
 30
0.0
 11
-540.7756728365413
 21
362.2160662912702
 31
0.0
  0
LINE
  5
111
  8
GR1_12
  6
CONTINUOUS
 62
     3
 10
-540.7756728365413
 20
365.71118773127
 30
0.0
 11
-463.6359689465413
 21
367.0580762713826
 31
0.0
  0
ARC
  5
112
  8
GR1_12
  6
CONTINUOUS
 62
     3
 10
-551.6359689465413
 20
363.9636270112701
 30
0.0
 40
11.0
 50
303.0557311500001
 51
350.8587359000002
  0
ARC
  5
113
  8
GR1_12
  6
CONTINUOUS
 62
     3
 10
-551.6359689465413
 20
363.9636270112701
 30
0.0
 40
11.0
 50
9.141264099999729
 51
56.94426884999993
  0
LINE
  5
114
  8
GR1_12
  6
CONTINUOUS
 62
     3
 10
-550.6359689465413
 20
398.9636270112701
 30
0.0
 11
-550.6359689465413
 21
403.2136270112701
 31
0.0
  0
LINE
  5
115
  8
GR1_12
  6
CONTINUOUS
 62
     3
 10
-550.6359689465413
 20
324.7136270112701
 30
0.0
 11
-550.6359689465413
 21
328.9636270112701
 31
0.0
  0
LINE
  5
116
  8
GR1_12
  6
CONTINUOUS
 62
     3
 10
-550.6359689465413
 20
313.9636270112701
 30
0.0
 11
-550.6359689465413
 21
318.2136270112701
 31
0.0
  0
LINE
  5
117
  8
GR1_12
  6
CONTINUOUS
 62
     3
 10
-565.6359689465413
 20
412.9636270112701
 30
0.0
 11
-565.6359689465413
 21
314.9636270112701
 31
0.0
  0
LINE
  5
118
  8
GR1_12
  6
CONTINUOUS
 62
     3
 10
-563.9039181665413
 20
313.9636270112701
 30
0.0
 11
-550.6359689465413
 21
313.9636270112701
 31
0.0
  0
LINE
  5
119
  8
GR1_12
  6
CONTINUOUS
 62
     3
 10
-565.6359689465413
 20
314.9636270112701
 30
0.0
 11
-563.9039181665413
 21
313.9636270112701
 31
0.0
  0
LINE
  5
11A
  8
GR1_12
  6
CONTINUOUS
 62
     3
 10
-550.6359689465413
 20
328.9636270112701
 30
0.0
 11
-565.6359689465413
 21
328.9636270112701
 31
0.0
  0
LINE
  5
11B
  8
GR1_12
  6
CONTINUOUS
 62
     3
 10
-565.6359689465413
 20
398.9636270112701
 30
0.0
 11
-550.6359689465413
 21
398.9636270112701
 31
0.0
  0
LINE
  5
11C
  8
GR1_12
  6
CONTINUOUS
 62
     3
 10
-550.6359689465413
 20
318.2136270112701
 30
0.0
 11
-558.6359689465413
 21
318.2136270112701
 31
0.0
  0
LINE
  5
11D
  8
GR1_12
  6
CONTINUOUS
 62
     3
 10
-558.6359689465413
 20
324.7136270112701
 30
0.0
 11
-550.6359689465413
 21
324.7136270112701
 31
0.0
  0
LINE
  5
11E
  8
GR1_12
  6
CONTINUOUS
 62
     3
 10
-558.6359689465413
 20
315.9636270112701
 30
0.0
 11
-558.6359689465413
 21
318.4636270112701
 31
0.0
  0
LINE
  5
11F
  8
GR1_12
  6
CONTINUOUS
 62
     3
 10
-558.6359689465413
 20
326.9636270112701
 30
0.0
 11
-558.6359689465413
 21
324.4636270112701
 31
0.0
  0
LINE
  5
120
  8
GR1_12
  6
CONTINUOUS
 62
     3
 10
-558.6359689465413
 20
315.9636270112701
 30
0.0
 11
-565.6359689465413
 21
315.9636270112701
 31
0.0
  0
LINE
  5
121
  8
GR1_12
  6
CONTINUOUS
 62
     3
 10
-565.6359689465413
 20
326.9636270112701
 30
0.0
 11
-558.6359689465413
 21
326.9636270112701
 31
0.0
  0
LINE
  5
122
  8
GR1_12
  6
CONTINUOUS
 62
     3
 10
-564.6359689465413
 20
326.4636270112701
 30
0.0
 11
-564.6359689465413
 21
316.4636270112701
 31
0.0
  0
LINE
  5
123
  8
GR1_12
  6
CONTINUOUS
 62
     3
 10
-558.6359689465413
 20
326.4636270112701
 30
0.0
 11
-564.6359689465413
 21
326.4636270112701
 31
0.0
  0
LINE
  5
124
  8
GR1_12
  6
CONTINUOUS
 62
     3
 10
-564.6359689465413
 20
316.4636270112701
 30
0.0
 11
-558.6359689465413
 21
316.4636270112701
 31
0.0
  0
LINE
  5
125
  8
GR1_12
  6
CONTINUOUS
 62
     3
 10
-543.6359689465413
 20
318.4636270112701
 30
0.0
 11
-543.6359689465413
 21
324.4636270112701
 31
0.0
  0
LINE
  5
126
  8
GR1_12
  6
CONTINUOUS
 62
     3
 10
-543.6359689465413
 20
324.4636270112701
 30
0.0
 11
-558.6359689465413
 21
324.4636270112701
 31
0.0
  0
LINE
  5
127
  8
GR1_12
  6
CONTINUOUS
 62
     3
 10
-558.6359689465413
 20
318.4636270112701
 30
0.0
 11
-543.6359689465413
 21
318.4636270112701
 31
0.0
  0
LINE
  5
128
  8
GR1_12
  6
CONTINUOUS
 62
     3
 10
-545.1359689465413
 20
349.9636270112701
 30
0.0
 11
-545.1359689465413
 21
339.9636270112701
 31
0.0
  0
LINE
  5
129
  8
GR1_12
  6
CONTINUOUS
 62
     3
 10
-539.1359689465413
 20
349.9636270112701
 30
0.0
 11
-545.1359689465413
 21
349.9636270112701
 31
0.0
  0
LINE
  5
12A
  8
GR1_12
  6
CONTINUOUS
 62
     3
 10
-545.1359689465413
 20
339.9636270112701
 30
0.0
 11
-539.1359689465413
 21
339.9636270112701
 31
0.0
  0
LINE
  5
12B
  8
GR1_12
  6
CONTINUOUS
 62
     3
 10
-524.1359689465413
 20
341.9636270112701
 30
0.0
 11
-524.1359689465413
 21
347.9636270112701
 31
0.0
  0
LINE
  5
12C
  8
GR1_12
  6
CONTINUOUS
 62
     3
 10
-524.1359689465413
 20
347.9636270112701
 30
0.0
 11
-539.1359689465413
 21
347.9636270112701
 31
0.0
  0
LINE
  5
12D
  8
GR1_12
  6
CONTINUOUS
 62
     3
 10
-539.1359689465413
 20
341.9636270112701
 30
0.0
 11
-524.1359689465413
 21
341.9636270112701
 31
0.0
  0
LINE
  5
12F
  8
GR1_15
  6
CONTINUOUS
 62
     3
 10
-295.6359689465413
 20
488.9484427012701
 30
0.0
 11
-320.6359689465413
 21
488.9484427012701
 31
0.0
  0
LINE
  5
130
  8
GR1_15
  6
CONTINUOUS
 62
     3
 10
-320.6359689465413
 20
238.9484427012701
 30
0.0
 11
-295.6359689465413
 21
238.9484427012701
 31
0.0
  0
LINE
  5
131
  8
GR1_15
  6
CONTINUOUS
 62
     3
 10
-295.6359689465413
 20
238.9484427012701
 30
0.0
 11
-295.6359689465413
 21
488.9484427012701
 31
0.0
  0
LINE
  5
132
  8
GR1_15
  6
CONTINUOUS
 62
     3
 10
-320.6359689465413
 20
488.9484427012701
 30
0.0
 11
-320.6359689465413
 21
238.9484427012701
 31
0.0
  0
LINE
  5
133
  8
GR1_15
  6
CONTINUOUS
 62
     3
 10
-340.6359689465413
 20
488.9484427012701
 30
0.0
 11
-355.6359689465413
 21
488.9484427012701
 31
0.0
  0
LINE
  5
134
  8
GR1_15
  6
CONTINUOUS
 62
     3
 10
-355.6359689465413
 20
238.9484427012701
 30
0.0
 11
-340.6359689465413
 21
238.9484427012701
 31
0.0
  0
LINE
  5
135
  8
GR1_15
  6
CONTINUOUS
 62
     3
 10
-340.6359689465413
 20
238.9484427012701
 30
0.0
 11
-340.6359689465413
 21
488.9484427012701
 31
0.0
  0
LINE
  5
136
  8
GR1_15
  6
CONTINUOUS
 62
     3
 10
-355.6359689465413
 20
488.9484427012701
 30
0.0
 11
-355.6359689465413
 21
271.4484427012701
 31
0.0
  0
LINE
  5
138
  8
7
  6
CONTINUOUS
 62
     3
 10
-320.6359689465413
 20
488.9484427012701
 30
0.0
 11
-340.6359689465413
 21
488.9484427012701
 31
0.0
  0
LINE
  5
139
  8
7
  6
CONTINUOUS
 62
     3
 10
-340.6359689465413
 20
238.9484427012701
 30
0.0
 11
-320.6359689465413
 21
238.9484427012701
 31
0.0
  0
LINE
  5
13A
  8
7
  6
CONTINUOUS
 62
     3
 10
-320.6359689465413
 20
238.9484427012701
 30
0.0
 11
-320.6359689465413
 21
488.9484427012701
 31
0.0
  0
LINE
  5
13B
  8
7
  6
CONTINUOUS
 62
     3
 10
-340.6359689465413
 20
488.9484427012701
 30
0.0
 11
-340.6359689465413
 21
238.9484427012701
 31
0.0
  0
LINE
  5
13D
  8
8
  6
CONTINUOUS
 62
     3
 10
-295.6359689465413
 20
488.9484427012701
 30
0.0
 11
-460.6359689465413
 21
488.9484427012701
 31
0.0
  0
LINE
  5
13E
  8
8
  6
CONTINUOUS
 62
     3
 10
-460.6359689465413
 20
238.9484427012701
 30
0.0
 11
-295.6359689465413
 21
238.9484427012701
 31
0.0
  0
LINE
  5
13F
  8
8
  6
CONTINUOUS
 62
     3
 10
-400.6359689465413
 20
238.9484427012701
 30
0.0
 11
-400.6359689465413
 21
256.4484427012701
 31
0.0
  0
LINE
  5
140
  8
8
  6
CONTINUOUS
 62
     3
 10
-460.6359689465413
 20
488.9484427012701
 30
0.0
 11
-460.6359689465413
 21
475.9484427012702
 31
0.0
  0
ARC
  5
142
  8
9
  6
CONTINUOUS
 62
     3
 10
-481.7258027165414
 20
323.9484427012701
 30
0.0
 40
20.3
 50
104.9485110300003
 51
255.0514889699997
  0
ARC
  5
143
  8
9
  6
CONTINUOUS
 62
     3
 10
-460.6432179165412
 20
394.9871136712702
 30
0.0
 40
94.395
 50
253.8103513599999
 51
270.00439997
  0
ARC
  5
144
  8
9
  6
CONTINUOUS
 62
     3
 10
-460.6432179165412
 20
252.90977173127
 30
0.0
 40
94.395
 50
89.99560003000005
 51
106.18964864
  0
ARC
  5
145
  8
9
  6
CONTINUOUS
 62
     3
 10
-461.8974699765412
 20
403.9484427012701
 30
0.0
 40
23.345
 50
91.02319329999996
 51
268.9768067000001
  0
ARC
  5
146
  8
9
  6
CONTINUOUS
 62
     3
 10
-460.6287199765412
 20
332.90977173127
 30
0.0
 40
94.395
 50
90.00439996999997
 51
91.02319330000003
  0
ARC
  5
147
  8
9
  6
CONTINUOUS
 62
     3
 10
-460.6287199765412
 20
474.9871136712702
 30
0.0
 40
94.395
 50
268.9768067
 51
269.99560003
  0
LINE
  5
148
  8
9
  6
CONTINUOUS
 62
     3
 10
-460.6359689465413
 20
443.9484427012701
 30
0.0
 11
-460.6359689465413
 21
427.3047714529313
 31
0.0
  0
LINE
  5
149
  8
9
  6
CONTINUOUS
 62
     3
 10
-430.6359689465413
 20
283.9484427012701
 30
0.0
 11
-430.6359689465413
 21
360.9636270112687
 31
0.0
  0
LINE
  5
14A
  8
9
  6
CONTINUOUS
 62
     3
 10
-430.6359689465413
 20
443.9484427012701
 30
0.0
 11
-460.6359689465413
 21
443.9484427012701
 31
0.0
  0
LINE
  5
14B
  8
9
  6
CONTINUOUS
 62
     3
 10
-460.6359689465413
 20
283.9484427012701
 30
0.0
 11
-430.6359689465413
 21
283.9484427012701
 31
0.0
  0
LINE
  5
14D
  8
11
  6
CONTINUOUS
 62
     3
 10
-527.6359689465413
 20
455.9484427012701
 30
0.0
 11
-527.6359689465413
 21
475.9484427012701
 31
0.0
  0
LINE
  5
14E
  8
11
  6
CONTINUOUS
 62
     3
 10
-400.6359689465413
 20
453.4484427012701
 30
0.0
 11
-406.6359689465413
 21
453.4484427012701
 31
0.0
  0
LINE
  5
14F
  8
11
  6
CONTINUOUS
 62
     3
 10
-400.6359689465413
 20
478.4484427012701
 30
0.0
 11
-406.6359689465413
 21
478.4484427012701
 31
0.0
  0
LINE
  5
150
  8
11
  6
CONTINUOUS
 62
     3
 10
-501.6359689465413
 20
455.9484427012701
 30
0.0
 11
-527.6359689465413
 21
455.9484427012701
 31
0.0
  0
LINE
  5
151
  8
11
  6
CONTINUOUS
 62
     3
 10
-406.6359689465413
 20
455.9484427012701
 30
0.0
 11
-461.6359689465413
 21
455.9484427012701
 31
0.0
  0
LINE
  5
152
  8
11
  6
CONTINUOUS
 62
     3
 10
-501.6359689465413
 20
475.9484427012701
 30
0.0
 11
-527.6359689465413
 21
475.9484427012701
 31
0.0
  0
LINE
  5
153
  8
11
  6
CONTINUOUS
 62
     3
 10
-406.6359689465413
 20
475.9484427012701
 30
0.0
 11
-461.6359689465413
 21
475.9484427012701
 31
0.0
  0
LINE
  5
154
  8
11
  6
CONTINUOUS
 62
     3
 10
-406.6359689465413
 20
453.4484427012701
 30
0.0
 11
-406.6359689465413
 21
478.4484427012701
 31
0.0
  0
LINE
  5
155
  8
GR1_12
  6
CONTINUOUS
 62
     3
 10
-522.6359689465413
 20
483.4484427012701
 30
0.0
 11
-522.6359689465413
 21
475.9484427012701
 31
0.0
  0
LINE
  5
156
  8
GR1_12
  6
CONTINUOUS
 62
     3
 10
-522.6359689465413
 20
455.9484427012701
 30
0.0
 11
-522.6359689465413
 21
448.4484427012701
 31
0.0
  0
LINE
  5
157
  8
GR1_12
  6
CONTINUOUS
 62
     3
 10
-460.6359689465413
 20
450.9484427012701
 30
0.0
 11
-522.6359689465413
 21
450.9484427012701
 31
0.0
  0
LINE
  5
158
  8
GR1_12
  6
CONTINUOUS
 62
     3
 10
-460.6359689465413
 20
480.9484427012701
 30
0.0
 11
-522.6359689465413
 21
480.9484427012701
 31
0.0
  0
LINE
  5
159
  8
GR1_12
  6
CONTINUOUS
 62
     3
 10
-501.6359689465413
 20
476.4484427012701
 30
0.0
 11
-501.6359689465413
 21
475.9484427012701
 31
0.0
  0
LINE
  5
15A
  8
GR1_12
  6
CONTINUOUS
 62
     3
 10
-501.6359689465413
 20
455.9484427012701
 30
0.0
 11
-501.6359689465413
 21
455.4484427012701
 31
0.0
  0
LINE
  5
15B
  8
GR1_12
  6
CONTINUOUS
 62
     3
 10
-501.6359689465413
 20
455.4484427012701
 30
0.0
 11
-530.6359689465413
 21
455.4484427012701
 31
0.0
  0
LINE
  5
15C
  8
GR1_12
  6
CONTINUOUS
 62
     3
 10
-501.6359689465413
 20
476.4484427012701
 30
0.0
 11
-530.6359689465413
 21
476.4484427012701
 31
0.0
  0
LINE
  5
15D
  8
GR1_12
  6
CONTINUOUS
 62
     3
 10
-461.6359689465413
 20
475.9484427012701
 30
0.0
 11
-501.6359689465413
 21
475.9484427012701
 31
0.0
  0
LINE
  5
15E
  8
GR1_12
  6
CONTINUOUS
 62
     3
 10
-461.6359689465413
 20
455.9484427012701
 30
0.0
 11
-501.6359689465413
 21
455.9484427012701
 31
0.0
  0
LINE
  5
15F
  8
GR1_12
  6
CONTINUOUS
 62
     3
 10
-461.6359689465413
 20
480.9484427012701
 30
0.0
 11
-461.6359689465413
 21
475.9484427012701
 31
0.0
  0
LINE
  5
160
  8
GR1_12
  6
CONTINUOUS
 62
     3
 10
-461.6359689465413
 20
455.9484427012701
 30
0.0
 11
-461.6359689465413
 21
450.9484427012701
 31
0.0
  0
LINE
  5
161
  8
GR1_12
  6
CONTINUOUS
 62
     3
 10
-522.6359689465413
 20
448.4484427012701
 30
0.0
 11
-530.6359689465413
 21
448.4484427012701
 31
0.0
  0
LINE
  5
162
  8
GR1_12
  6
CONTINUOUS
 62
     3
 10
-522.6359689465413
 20
483.4484427012701
 30
0.0
 11
-530.6359689465413
 21
483.4484427012701
 31
0.0
  0
LINE
  5
164
  8
12
  6
CONTINUOUS
 62
     3
 10
-385.2914157727278
 20
-33.59368672355356
 30
0.0
 11
-398.2914157727278
 21
-33.59368672355356
 31
0.0
  0
LINE
  5
165
  8
12
  6
CONTINUOUS
 62
     3
 10
-395.7914157727278
 20
-25.59368672355356
 30
0.0
 11
-395.7914157727278
 21
-0.5936867235535601
 31
0.0
  0
LINE
  5
166
  8
12
  6
CONTINUOUS
 62
     3
 10
-387.7914157727278
 20
-25.59368672355356
 30
0.0
 11
-387.7914157727278
 21
-0.5936867235535601
 31
0.0
  0
LINE
  5
167
  8
12
  6
CONTINUOUS
 62
     3
 10
-398.2914157727278
 20
-25.59368672355356
 30
0.0
 11
-385.2914157727278
 21
-25.59368672355356
 31
0.0
  0
LINE
  5
168
  8
12
  6
CONTINUOUS
 62
     3
 10
-385.2914157727278
 20
-33.59368672355356
 30
0.0
 11
-385.2914157727278
 21
-25.59368672355356
 31
0.0
  0
LINE
  5
169
  8
12
  6
CONTINUOUS
 62
     3
 10
-398.2914157727278
 20
-33.59368672355356
 30
0.0
 11
-398.2914157727278
 21
-25.59368672355356
 31
0.0
  0
LINE
  5
16A
  8
12
  6
CONTINUOUS
 62
     3
 10
-395.7914157727278
 20
-0.5936867235535601
 30
0.0
 11
-387.7914157727278
 21
-0.5936867235535601
 31
0.0
  0
POINT
  5
16B
  8
17
  6
CONTINUOUS
 62
     3
 10
-723.0661697640185
 20
105.8063132764463
 30
0.0
  0
ARC
  5
16C
  8
99
  6
CONTINUOUS
 62
     3
 10
-723.0661697640185
 20
107.0678143064464
 30
0.0
 40
23.345
 50
3.253599489999846
 51
176.7464005100002
  0
LINE
  5
16D
  8
200
  6
CONTINUOUS
 62
     3
 10
-598.0661697640185
 20
175.8063132764463
 30
0.0
 11
-598.0661697640185
 21
200.8063132764463
 31
0.0
  0
LINE
  5
16E
  8
200
  6
CONTINUOUS
 62
     3
 10
-848.0661697640185
 20
200.8063132764463
 30
0.0
 11
-848.0661697640185
 21
175.8063132764463
 31
0.0
  0
LINE
  5
16F
  8
200
  6
CONTINUOUS
 62
     3
 10
-848.0661697640185
 20
175.8063132764463
 30
0.0
 11
-598.0661697640185
 21
175.8063132764463
 31
0.0
  0
LINE
  5
170
  8
200
  6
CONTINUOUS
 62
     3
 10
-598.0661697640185
 20
200.8063132764463
 30
0.0
 11
-848.0661697640185
 21
200.8063132764463
 31
0.0
  0
LINE
  5
171
  8
250
  6
CONTINUOUS
 62
     3
 10
-623.0661697640185
 20
105.8063132764463
 30
0.0
 11
-623.0661697640185
 21
175.8063132764463
 31
0.0
  0
LINE
  5
172
  8
250
  6
CONTINUOUS
 62
     3
 10
-823.0661697640185
 20
175.8063132764463
 30
0.0
 11
-823.0661697640185
 21
105.8063132764463
 31
0.0
  0
LINE
  5
173
  8
250
  6
CONTINUOUS
 62
     3
 10
-823.0661697640185
 20
105.8063132764463
 30
0.0
 11
-746.4224985140186
 21
105.8063132764463
 31
0.0
  0
LINE
  5
174
  8
250
  6
CONTINUOUS
 62
     3
 10
-623.0661697640185
 20
175.8063132764463
 30
0.0
 11
-823.0661697640185
 21
175.8063132764463
 31
0.0
  0
LINE
  5
175
  8
GR1_12
  6
CONTINUOUS
 62
     3
 10
-694.7427781168561
 20
210.8063132764463
 30
0.0
 11
-751.3895614040184
 21
210.8063132764463
 31
0.0
  0
LINE
  5
176
  8
GR1_12
  6
CONTINUOUS
 62
     3
 10
-693.0459346840184
 20
200.8063132764463
 30
0.0
 11
-693.0459346840184
 21
209.0742624964463
 31
0.0
  0
LINE
  5
177
  8
GR1_12
  6
CONTINUOUS
 62
     3
 10
-753.0864048440185
 20
209.0742624964463
 30
0.0
 11
-753.0864048440186
 21
200.8063132764463
 31
0.0
  0
ARC
  5
178
  8
GR1_12
  6
CONTINUOUS
 62
     3
 10
-785.1400221640185
 20
120.5493700564463
 30
0.0
 40
127.74183939
 50
43.86793071999997
 51
44.95550259000002
  0
ARC
  5
179
  8
GR1_12
  6
CONTINUOUS
 62
     3
 10
-660.9923173640184
 20
120.5493700564463
 30
0.0
 40
127.74183939
 50
135.04449741
 51
136.1320692800001
  0
LINE
  5
17A
  8
GR1_15
  6
CONTINUOUS
 62
     3
 10
-598.0661697640185
 20
-59.19368672355358
 30
0.0
 11
-598.0661697640185
 21
-34.19368672355358
 31
0.0
  0
LINE
  5
17B
  8
GR1_15
  6
CONTINUOUS
 62
     3
 10
-848.0661697640185
 20
-34.19368672355358
 30
0.0
 11
-848.0661697640185
 21
-59.19368672355358
 31
0.0
  0
LINE
  5
17C
  8
GR1_15
  6
CONTINUOUS
 62
     3
 10
-848.0661697640185
 20
-59.19368672355358
 30
0.0
 11
-598.0661697640185
 21
-59.19368672355358
 31
0.0
  0
LINE
  5
17D
  8
GR1_15
  6
CONTINUOUS
 62
     3
 10
-598.0661697640185
 20
-34.19368672355358
 30
0.0
 11
-848.0661697640185
 21
-34.19368672355358
 31
0.0
  0
LINE
  5
17E
  8
GR1_15
  6
CONTINUOUS
 62
     3
 10
-785.0661697640185
 20
-34.19368672355358
 30
0.0
 11
-785.0661697640185
 21
45.80631327644642
 31
0.0
  0
LINE
  5
17F
  8
GR1_15
  6
CONTINUOUS
 62
     3
 10
-823.0661697640185
 20
45.80631327644642
 30
0.0
 11
-823.0661697640185
 21
-34.19368672355358
 31
0.0
  0
LINE
  5
180
  8
GR1_15
  6
CONTINUOUS
 62
     3
 10
-785.0661697640185
 20
45.80631327644642
 30
0.0
 11
-823.0661697640185
 21
45.80631327644642
 31
0.0
  0
LINE
  5
181
  8
GR1_15
  6
CONTINUOUS
 62
     3
 10
-623.0661697640185
 20
-34.19368672355358
 30
0.0
 11
-623.0661697640185
 21
45.80631327644642
 31
0.0
  0
LINE
  5
182
  8
GR1_15
  6
CONTINUOUS
 62
     3
 10
-661.0661697640185
 20
45.80631327644642
 30
0.0
 11
-661.0661697640185
 21
-34.19368672355358
 31
0.0
  0
LINE
  5
183
  8
GR1_15
  6
CONTINUOUS
 62
     3
 10
-623.0661697640185
 20
45.80631327644642
 30
0.0
 11
-661.0661697640185
 21
45.80631327644642
 31
0.0
  0
LINE
  5
184
  8
GR1_15
  6
CONTINUOUS
 62
     3
 10
-663.0661697640185
 20
-14.19368672355358
 30
0.0
 11
-663.0661697640185
 21
0.8063132764464171
 31
0.0
  0
LINE
  5
185
  8
GR1_15
  6
CONTINUOUS
 62
     3
 10
-783.0661697640185
 20
0.8063132764464171
 30
0.0
 11
-783.0661697640185
 21
-14.19368672355358
 31
0.0
  0
LINE
  5
186
  8
GR1_15
  6
CONTINUOUS
 62
     3
 10
-783.0661697640185
 20
-14.19368672355358
 30
0.0
 11
-663.0661697640185
 21
-14.19368672355358
 31
0.0
  0
LINE
  5
187
  8
GR1_15
  6
CONTINUOUS
 62
     3
 10
-663.0661697640185
 20
0.8063132764464171
 30
0.0
 11
-692.5235313437968
 21
0.806313276446474
 31
0.0
  0
LINE
  5
188
  8
7
  6
CONTINUOUS
 62
     3
 10
-663.0661697640185
 20
-34.19368672355358
 30
0.0
 11
-663.0661697640185
 21
-14.19368672355358
 31
0.0
  0
LINE
  5
189
  8
7
  6
CONTINUOUS
 62
     3
 10
-783.0661697640185
 20
-14.19368672355358
 30
0.0
 11
-783.0661697640185
 21
-34.19368672355358
 31
0.0
  0
LINE
  5
18A
  8
7
  6
CONTINUOUS
 62
     3
 10
-783.0661697640185
 20
-34.19368672355358
 30
0.0
 11
-663.0661697640185
 21
-34.19368672355358
 31
0.0
  0
LINE
  5
18B
  8
7
  6
CONTINUOUS
 62
     3
 10
-663.0661697640185
 20
-14.19368672355358
 30
0.0
 11
-783.0661697640185
 21
-14.19368672355358
 31
0.0
  0
LINE
  5
18C
  8
8
  6
CONTINUOUS
 62
     3
 10
-623.0661697640185
 20
45.80631327644642
 30
0.0
 11
-623.0661697640185
 21
105.8063132764463
 31
0.0
  0
LINE
  5
18D
  8
8
  6
CONTINUOUS
 62
     3
 10
-823.0661697640185
 20
105.8063132764463
 30
0.0
 11
-823.0661697640185
 21
45.80631327644642
 31
0.0
  0
LINE
  5
18E
  8
8
  6
CONTINUOUS
 62
     3
 10
-823.0661697640185
 20
45.80631327644642
 30
0.0
 11
-749.6718183255737
 21
45.80631327644647
 31
0.0
  0
LINE
  5
18F
  8
9
  6
CONTINUOUS
 62
     3
 10
-763.0661697640185
 20
75.80631327644642
 30
0.0
 11
-747.047158419796
 21
75.80631327644642
 31
0.0
  0
LINE
  5
190
  8
9
  6
CONTINUOUS
 62
     3
 10
-683.0661697640185
 20
75.80631327644642
 30
0.0
 11
-683.0661697640185
 21
105.8063132764463
 31
0.0
  0
LINE
  5
191
  8
9
  6
CONTINUOUS
 62
     3
 10
-763.0661697640185
 20
105.8063132764463
 30
0.0
 11
-763.0661697640185
 21
75.80631327644642
 31
0.0
  0
POINT
  5
192
  8
17
  6
CONTINUOUS
 62
     3
 10
-441.7914157727278
 20
105.8063132764464
 30
0.0
  0
LINE
  5
193
  8
200
  6
CONTINUOUS
 62
     3
 10
-316.7914157727278
 20
175.8063132764464
 30
0.0
 11
-316.7914157727278
 21
200.8063132764464
 31
0.0
  0
LINE
  5
194
  8
200
  6
CONTINUOUS
 62
     3
 10
-566.7914157727278
 20
200.8063132764464
 30
0.0
 11
-566.7914157727278
 21
175.8063132764464
 31
0.0
  0
LINE
  5
195
  8
200
  6
CONTINUOUS
 62
     3
 10
-566.7914157727278
 20
175.8063132764464
 30
0.0
 11
-316.7914157727278
 21
175.8063132764464
 31
0.0
  0
LINE
  5
196
  8
200
  6
CONTINUOUS
 62
     3
 10
-316.7914157727278
 20
200.8063132764464
 30
0.0
 11
-566.7914157727278
 21
200.8063132764464
 31
0.0
  0
LINE
  5
197
  8
250
  6
CONTINUOUS
 62
     3
 10
-341.7914157727278
 20
105.8063132764464
 30
0.0
 11
-341.7914157727278
 21
175.8063132764464
 31
0.0
  0
LINE
  5
198
  8
250
  6
CONTINUOUS
 62
     3
 10
-541.7914157727278
 20
175.8063132764464
 30
0.0
 11
-541.7914157727278
 21
105.8063132764464
 31
0.0
  0
LINE
  5
199
  8
250
  6
CONTINUOUS
 62
     3
 10
-416.4050870152075
 20
105.8063132764464
 30
0.0
 11
-401.7914157727278
 21
105.8063132764464
 31
0.0
  0
LINE
  5
19A
  8
250
  6
CONTINUOUS
 62
     3
 10
-341.7914157727278
 20
175.8063132764464
 30
0.0
 11
-355.7914157727278
 21
175.8063132764464
 31
0.0
  0
LINE
  5
19B
  8
GR1_12
  6
CONTINUOUS
 62
     3
 10
-413.5109450280037
 20
210.8063132764464
 30
0.0
 11
-470.0718865027277
 21
210.8063132764464
 31
0.0
  0
LINE
  5
19C
  8
GR1_12
  6
CONTINUOUS
 62
     3
 10
-471.7711593427277
 20
209.0742624964464
 30
0.0
 11
-471.7711593427277
 21
200.8063132764464
 31
0.0
  0
LINE
  5
19D
  8
GR1_12
  6
CONTINUOUS
 62
     3
 10
-411.8116722027277
 20
200.8063132764464
 30
0.0
 11
-411.8116722027278
 21
209.0742624964464
 31
0.0
  0
ARC
  5
19E
  8
GR1_12
  6
CONTINUOUS
 62
     3
 10
-503.5054925127279
 20
120.8152712264464
 30
0.0
 40
127.2690309
 50
43.90650603999999
 51
44.99888410000003
  0
ARC
  5
19F
  8
GR1_12
  6
CONTINUOUS
 62
     3
 10
-380.0773390327277
 20
120.8152712264464
 30
0.0
 40
127.2690309
 50
135.0011159
 51
136.09349396
  0
LINE
  5
1A0
  8
GR1_15
  6
CONTINUOUS
 62
     3
 10
-316.7914157727278
 20
-59.19368672355358
 30
0.0
 11
-316.7914157727278
 21
-34.19368672355358
 31
0.0
  0
LINE
  5
1A1
  8
GR1_15
  6
CONTINUOUS
 62
     3
 10
-566.7914157727278
 20
-34.19368672355358
 30
0.0
 11
-566.7914157727278
 21
-59.19368672355358
 31
0.0
  0
LINE
  5
1A2
  8
GR1_15
  6
CONTINUOUS
 62
     3
 10
-566.7914157727278
 20
-59.19368672355358
 30
0.0
 11
-316.7914157727278
 21
-59.19368672355358
 31
0.0
  0
LINE
  5
1A3
  8
GR1_15
  6
CONTINUOUS
 62
     3
 10
-316.7914157727278
 20
-34.19368672355358
 30
0.0
 11
-355.7914157727278
 21
-34.19368672355358
 31
0.0
  0
LINE
  5
1A4
  8
GR1_15
  6
CONTINUOUS
 62
     3
 10
-503.7914157727278
 20
-34.19368672355358
 30
0.0
 11
-503.7914157727278
 21
45.80631327644642
 31
0.0
  0
LINE
  5
1A5
  8
GR1_15
  6
CONTINUOUS
 62
     3
 10
-541.7914157727278
 20
45.80631327644642
 30
0.0
 11
-541.7914157727278
 21
-34.19368672355358
 31
0.0
  0
LINE
  5
1A6
  8
GR1_15
  6
CONTINUOUS
 62
     3
 10
-367.7914157727278
 20
-34.19368672355358
 30
0.0
 11
-566.7914157727278
 21
-34.19368672355358
 31
0.0
  0
LINE
  5
1A7
  8
GR1_15
  6
CONTINUOUS
 62
     3
 10
-503.7914157727278
 20
45.80631327644642
 30
0.0
 11
-541.7914157727278
 21
45.80631327644642
 31
0.0
  0
LINE
  5
1A8
  8
GR1_15
  6
CONTINUOUS
 62
     3
 10
-341.7914157727278
 20
-34.19368672355358
 30
0.0
 11
-341.7914157727278
 21
45.80631327644642
 31
0.0
  0
LINE
  5
1A9
  8
GR1_15
  6
CONTINUOUS
 62
     3
 10
-379.7914157727278
 20
45.80631327644642
 30
0.0
 11
-379.7914157727278
 21
-34.19368672355358
 31
0.0
  0
LINE
  5
1AA
  8
GR1_15
  6
CONTINUOUS
 62
     3
 10
-381.7914157727278
 20
-14.19368672355358
 30
0.0
 11
-381.7914157727278
 21
0.8063132764464171
 31
0.0
  0
LINE
  5
1AB
  8
GR1_15
  6
CONTINUOUS
 62
     3
 10
-501.7914157727278
 20
0.8063132764464171
 30
0.0
 11
-501.7914157727278
 21
-14.19368672355358
 31
0.0
  0
LINE
  5
1AC
  8
GR1_15
  6
CONTINUOUS
 62
     3
 10
-501.7914157727278
 20
-14.19368672355358
 30
0.0
 11
-395.7914157727276
 21
-14.19368672355347
 31
0.0
  0
LINE
  5
1AD
  8
GR1_15
  6
CONTINUOUS
 62
     3
 10
-381.7914157727278
 20
0.8063132764464171
 30
0.0
 11
-437.7914157727278
 21
0.8063132764465308
 31
0.0
  0
LINE
  5
1AE
  8
7
  6
CONTINUOUS
 62
     3
 10
-381.7914157727278
 20
-34.19368672355358
 30
0.0
 11
-381.7914157727278
 21
-14.19368672355358
 31
0.0
  0
LINE
  5
1AF
  8
7
  6
CONTINUOUS
 62
     3
 10
-501.7914157727278
 20
-14.19368672355358
 30
0.0
 11
-501.7914157727278
 21
-34.19368672355358
 31
0.0
  0
LINE
  5
1B0
  8
7
  6
CONTINUOUS
 62
     3
 10
-501.7914157727278
 20
-34.19368672355358
 30
0.0
 11
-381.7914157727278
 21
-34.19368672355358
 31
0.0
  0
LINE
  5
1B1
  8
7
  6
CONTINUOUS
 62
     3
 10
-381.7914157727278
 20
-14.19368672355358
 30
0.0
 11
-387.7914157727276
 21
-14.19368672355347
 31
0.0
  0
LINE
  5
1B2
  8
8
  6
CONTINUOUS
 62
     3
 10
-341.7914157727278
 20
45.80631327644642
 30
0.0
 11
-341.7914157727278
 21
105.8063132764464
 31
0.0
  0
LINE
  5
1B3
  8
8
  6
CONTINUOUS
 62
     3
 10
-541.7914157727278
 20
105.8063132764464
 30
0.0
 11
-541.7914157727278
 21
45.80631327644642
 31
0.0
  0
LINE
  5
1B4
  8
8
  6
CONTINUOUS
 62
     3
 10
-541.7914157727278
 20
45.80631327644642
 30
0.0
 11
-445.7914157727278
 21
45.8063132764463
 31
0.0
  0
LINE
  5
1B5
  8
8
  6
CONTINUOUS
 62
     3
 10
-341.7914157727278
 20
105.8063132764464
 30
0.0
 11
-356.7914157727278
 21
105.8063132764464
 31
0.0
  0
LINE
  5
1B6
  8
9
  6
CONTINUOUS
 62
     3
 10
-481.7914157727278
 20
75.80631327644642
 30
0.0
 11
-445.7914157727276
 21
75.80631327644642
 31
0.0
  0
LINE
  5
1B7
  8
9
  6
CONTINUOUS
 62
     3
 10
-401.7914157727278
 20
75.80631327644642
 30
0.0
 11
-401.7914157727278
 21
90.80631327644642
 31
0.0
  0
LINE
  5
1B8
  8
9
  6
CONTINUOUS
 62
     3
 10
-481.7914157727276
 20
90.80631327644642
 30
0.0
 11
-481.7914157727278
 21
75.80631327644642
 31
0.0
  0
LINE
  5
1BA
  8
GR1_01
  6
CONTINUOUS
 62
     3
 10
-419.9689157727278
 20
105.8063132764464
 30
0.0
 11
-419.9689157727278
 21
90.80631327644642
 31
0.0
  0
LINE
  5
1BB
  8
GR1_01
  6
CONTINUOUS
 62
     3
 10
-419.9689157727278
 20
90.80631327644642
 30
0.0
 11
-401.7914157727278
 21
90.80631327644642
 31
0.0
  0
LINE
  5
1BC
  8
GR1_15
  6
CONTINUOUS
 62
     4
 10
-375.5710150852188
 20
75.8063132764463
 30
0.0
 11
-382.1121482138516
 21
112.9029698864464
 31
0.0
  0
LINE
  5
1BD
  8
GR1_15
  6
CONTINUOUS
 62
     4
 10
-393.2818405150391
 20
112.9029698864464
 30
0.0
 11
-386.7407073952189
 21
75.8063132764463
 31
0.0
  0
LINE
  5
1BE
  8
GR1_15
  6
CONTINUOUS
 62
     4
 10
-401.7914157727278
 20
75.80631327644642
 30
0.0
 11
-341.7914157727278
 21
75.8063132764463
 31
0.0
  0
LINE
  5
1BF
  8
GR1_15
  6
CONTINUOUS
 62
     4
 10
-356.7914157727278
 20
75.80631327644642
 30
0.0
 11
-356.7914157727278
 21
90.80631327644642
 31
0.0
  0
LINE
  5
1C0
  8
GR1_15
  6
CONTINUOUS
 62
     4
 10
-356.7914157727278
 20
90.80631327644642
 30
0.0
 11
-371.7914157727278
 21
90.80631327644642
 31
0.0
  0
LINE
  5
1C1
  8
GR1_15
  6
CONTINUOUS
 62
     4
 10
-371.7914157727278
 20
90.80631327644642
 30
0.0
 11
-376.4882051227278
 21
112.9029698864465
 31
0.0
  0
LINE
  5
1C2
  8
GR1_01
  6
CONTINUOUS
 62
     3
 10
-376.4882051227279
 20
112.9029698864465
 30
0.0
 11
-382.619858194424
 21
112.9029698864465
 31
0.0
  0
LINE
  5
1C3
  8
GR1_01
  6
CONTINUOUS
 62
     3
 10
-401.7914157727278
 20
112.9029698864465
 30
0.0
 11
-401.7914157727278
 21
105.8063132764464
 31
0.0
  0
LINE
  5
1C4
  8
GR1_15
  6
CONTINUOUS
 62
     4
 10
-391.0301612027276
 20
131.8063124064465
 30
0.0
 11
-397.2323845727278
 21
129.5488882664465
 31
0.0
  0
LINE
  5
1C5
  8
GR1_15
  6
CONTINUOUS
 62
     4
 10
-384.4298832927277
 20
131.8063117864467
 30
0.0
 11
-391.0301513527277
 21
131.8063141464465
 31
0.0
  0
LINE
  5
1C6
  8
GR1_15
  6
CONTINUOUS
 62
     4
 10
-391.0301513527277
 20
131.8063141464465
 30
0.0
 11
-391.0301612027276
 21
131.8063124064465
 31
0.0
  0
LINE
  5
1C7
  8
GR1_15
  6
CONTINUOUS
 62
     4
 10
-397.2323845727278
 20
129.5488882664465
 30
0.0
 11
-395.6949272927277
 21
120.8295236064466
 31
0.0
  0
LINE
  5
1C8
  8
GR1_15
  6
CONTINUOUS
 62
     4
 10
-395.6949272927277
 20
120.8295236064466
 30
0.0
 11
-382.8924260127278
 21
123.0869471264466
 31
0.0
  0
LINE
  5
1C9
  8
GR1_15
  6
CONTINUOUS
 62
     4
 10
-382.8924260127278
 20
123.0869471264466
 30
0.0
 11
-384.4298832927277
 21
131.8063117864467
 31
0.0
  0
LINE
  5
1CA
  8
GR1_15
  6
CONTINUOUS
 62
     4
 10
-394.2177156027278
 20
121.0899955564466
 30
0.0
 11
-387.1538846807611
 21
81.02896863254716
 31
0.0
  0
LINE
  5
1CB
  8
GR1_15
  6
CONTINUOUS
 62
     4
 10
-377.3058067709848
 20
82.76544826381473
 30
0.0
 11
-384.3696376927278
 21
122.8264751864467
 31
0.0
  0
LINE
  5
1CC
  8
GR1_15
  6
CONTINUOUS
 62
     4
 10
-356.7914157727278
 20
91.80631327644664
 30
0.0
 11
-356.7914157727278
 21
131.8063132764466
 31
0.0
  0
LINE
  5
1CD
  8
GR1_15
  6
CONTINUOUS
 62
     4
 10
-401.7914157727278
 20
131.8063132764466
 30
0.0
 11
-401.7914157727278
 21
112.9029698864465
 31
0.0
  0
LINE
  5
1CE
  8
GR1_15
  6
CONTINUOUS
 62
     4
 10
-356.7914157727278
 20
131.8063132764466
 30
0.0
 11
-401.7914157727278
 21
131.8063132764466
 31
0.0
  0
LINE
  5
1CF
  8
GR1_15
  6
CONTINUOUS
 62
     4
 10
-372.0039723327277
 20
91.80631327644664
 30
0.0
 11
-356.7914157727278
 21
91.80631327644664
 31
0.0
  0
LINE
  5
1D1
  8
GR1_15
  6
CENTER
 62
     4
 10
-391.0301612027276
 20
131.8063124064465
 30
0.0
 11
-381.1558577649225
 21
75.80631327644642
 31
0.0
  0
LINE
  5
1D2
  8
GR1_15
  6
CONTINUOUS
 62
     4
 10
-384.4298832927277
 20
131.8063117864467
 30
0.0
 11
-397.2323845727278
 21
129.5488882664465
 31
0.0
  0
LINE
  5
1D3
  8
GR1_15
  6
CONTINUOUS
 62
     4
 10
-401.7914157727278
 20
112.9029698864465
 30
0.0
 11
-392.7741239227278
 21
112.9029698864465
 31
0.0
  0
LINE
  5
1D4
  8
GR1_15
  6
CONTINUOUS
 62
     4
 10
-382.6198581927276
 20
112.9029698864465
 30
0.0
 11
-376.4882051227278
 21
112.9029698864465
 31
0.0
  0
LINE
  5
1D5
  8
250
  6
CONTINUOUS
 62
     3
 10
-356.7914157727278
 20
105.8063132764464
 30
0.0
 11
-341.7914157727278
 21
105.8063132764464
 31
0.0
  0
LINE
  5
1D6
  8
8
  6
CONTINUOUS
 62
     3
 10
-467.177744530248
 20
105.8063132764464
 30
0.0
 11
-481.7914157727278
 21
105.8063132764464
 31
0.0
  0
LINE
  5
1D7
  8
GR1_01
  6
CONTINUOUS
 62
     3
 10
-392.774123924548
 20
112.9029698864465
 30
0.0
 11
-401.7914157727278
 21
112.9029698864465
 31
0.0
  0
ARC
  5
1D8
  8
GR1_15
  6
CONTINUOUS
 62
     4
 10
-382.2298461186163
 20
81.8972083789298
 30
0.0
 40
5.0
 50
189.9999875199998
 51
9.999986660000397
  0
LINE
  5
1D9
  8
GR1_01
  6
DASHDOT
 62
     3
 10
-441.7914157727278
 20
210.8063132764464
 30
0.0
 11
-441.7914157727278
 21
-59.19368672355358
 31
0.0
  0
LINE
  5
1DA
  8
8
  6
CONTINUOUS
 62
     3
 10
-541.7914157727278
 20
105.8063132764464
 30
0.0
 11
-526.7914157727276
 21
105.8063132764464
 31
0.0
  0
LINE
  5
1DB
  8
GR1_01
  6
CONTINUOUS
 62
     3
 10
-463.6139157727278
 20
105.8063132764464
 30
0.0
 11
-463.6139157727278
 21
90.80631327644642
 31
0.0
  0
LINE
  5
1DC
  8
GR1_01
  6
CONTINUOUS
 62
     3
 10
-463.6139157727278
 20
90.80631327644642
 30
0.0
 11
-481.7914157727278
 21
90.80631327644642
 31
0.0
  0
LINE
  5
1DD
  8
GR1_15
  6
CONTINUOUS
 62
     4
 10
-508.0118164602367
 20
75.8063132764463
 30
0.0
 11
-501.4706833316039
 21
112.9029698864464
 31
0.0
  0
LINE
  5
1DE
  8
GR1_15
  6
CONTINUOUS
 62
     4
 10
-490.3009910304164
 20
112.9029698864464
 30
0.0
 11
-496.8421241502366
 21
75.8063132764463
 31
0.0
  0
LINE
  5
1DF
  8
GR1_15
  6
CONTINUOUS
 62
     4
 10
-481.7914157727278
 20
75.80631327644642
 30
0.0
 11
-541.7914157727278
 21
75.8063132764463
 31
0.0
  0
LINE
  5
1E0
  8
GR1_15
  6
CONTINUOUS
 62
     4
 10
-526.7914157727278
 20
75.80631327644642
 30
0.0
 11
-526.7914157727278
 21
90.80631327644642
 31
0.0
  0
LINE
  5
1E1
  8
GR1_15
  6
CONTINUOUS
 62
     4
 10
-526.7914157727278
 20
90.80631327644642
 30
0.0
 11
-511.7914157727278
 21
90.80631327644642
 31
0.0
  0
LINE
  5
1E2
  8
GR1_15
  6
CONTINUOUS
 62
     4
 10
-511.7914157727278
 20
90.80631327644642
 30
0.0
 11
-507.0946264227277
 21
112.9029698864465
 31
0.0
  0
LINE
  5
1E3
  8
GR1_01
  6
CONTINUOUS
 62
     3
 10
-507.0946264227276
 20
112.9029698864465
 30
0.0
 11
-500.9629733510316
 21
112.9029698864465
 31
0.0
  0
LINE
  5
1E4
  8
GR1_01
  6
CONTINUOUS
 62
     3
 10
-481.7914157727278
 20
112.9029698864465
 30
0.0
 11
-481.7914157727279
 21
105.8063132764464
 31
0.0
  0
LINE
  5
1E5
  8
GR1_15
  6
CONTINUOUS
 62
     4
 10
-492.5526703427279
 20
131.8063124064465
 30
0.0
 11
-486.3504469727277
 21
129.5488882664465
 31
0.0
  0
LINE
  5
1E6
  8
GR1_15
  6
CONTINUOUS
 62
     4
 10
-499.1529482527278
 20
131.8063117864467
 30
0.0
 11
-492.5526801927278
 21
131.8063141464465
 31
0.0
  0
LINE
  5
1E7
  8
GR1_15
  6
CONTINUOUS
 62
     4
 10
-492.5526801927278
 20
131.8063141464465
 30
0.0
 11
-492.5526703427279
 21
131.8063124064465
 31
0.0
  0
LINE
  5
1E8
  8
GR1_15
  6
CONTINUOUS
 62
     4
 10
-486.3504469727277
 20
129.5488882664465
 30
0.0
 11
-487.8879042527278
 21
120.8295236064466
 31
0.0
  0
LINE
  5
1E9
  8
GR1_15
  6
CONTINUOUS
 62
     4
 10
-487.8879042527278
 20
120.8295236064466
 30
0.0
 11
-500.6904055327277
 21
123.0869471264466
 31
0.0
  0
LINE
  5
1EA
  8
GR1_15
  6
CONTINUOUS
 62
     4
 10
-500.6904055327277
 20
123.0869471264466
 30
0.0
 11
-499.1529482527278
 21
131.8063117864467
 31
0.0
  0
LINE
  5
1EB
  8
GR1_15
  6
CONTINUOUS
 62
     4
 10
-489.3651159427277
 20
121.0899955564466
 30
0.0
 11
-496.4289468646945
 21
81.02896863254716
 31
0.0
  0
LINE
  5
1EC
  8
GR1_15
  6
CONTINUOUS
 62
     4
 10
-506.2770247744708
 20
82.76544826381473
 30
0.0
 11
-499.2131938527277
 21
122.8264751864467
 31
0.0
  0
LINE
  5
1ED
  8
GR1_15
  6
CONTINUOUS
 62
     4
 10
-526.7914157727276
 20
91.80631327644664
 30
0.0
 11
-526.7914157727276
 21
131.8063132764466
 31
0.0
  0
LINE
  5
1EE
  8
GR1_15
  6
CONTINUOUS
 62
     4
 10
-481.7914157727278
 20
131.8063132764466
 30
0.0
 11
-481.7914157727278
 21
112.9029698864465
 31
0.0
  0
LINE
  5
1EF
  8
GR1_15
  6
CONTINUOUS
 62
     4
 10
-526.7914157727276
 20
131.8063132764466
 30
0.0
 11
-481.7914157727278
 21
131.8063132764466
 31
0.0
  0
LINE
  5
1F0
  8
GR1_15
  6
CONTINUOUS
 62
     4
 10
-511.5788592127278
 20
91.80631327644664
 30
0.0
 11
-526.7914157727276
 21
91.80631327644664
 31
0.0
  0
LINE
  5
1F1
  8
GR1_15
  6
CENTER
 62
     4
 10
-492.5526703427279
 20
131.8063124064465
 30
0.0
 11
-502.2212256975388
 21
76.97316950496304
 31
0.0
  0
LINE
  5
1F2
  8
GR1_15
  6
CONTINUOUS
 62
     4
 10
-499.1529482527278
 20
131.8063117864467
 30
0.0
 11
-486.3504469727277
 21
129.5488882664465
 31
0.0
  0
LINE
  5
1F3
  8
GR1_15
  6
CONTINUOUS
 62
     4
 10
-481.7914157727278
 20
112.9029698864465
 30
0.0
 11
-490.8087076227278
 21
112.9029698864465
 31
0.0
  0
LINE
  5
1F4
  8
GR1_15
  6
CONTINUOUS
 62
     4
 10
-500.9629733527279
 20
112.9029698864465
 30
0.0
 11
-507.0946264227277
 21
112.9029698864465
 31
0.0
  0
LINE
  5
1F5
  8
250
  6
CONTINUOUS
 62
     3
 10
-526.7914157727276
 20
105.8063132764464
 30
0.0
 11
-541.7914157727278
 21
105.8063132764464
 31
0.0
  0
LINE
  5
1F6
  8
GR1_01
  6
CONTINUOUS
 62
     3
 10
-490.8087076209075
 20
112.9029698864465
 30
0.0
 11
-481.7914157727278
 21
112.9029698864465
 31
0.0
  0
ARC
  5
1F7
  8
GR1_15
  6
CONTINUOUS
 62
     4
 10
-501.3529854268393
 20
81.8972083789298
 30
0.0
 40
5.0
 50
170.0000133399997
 51
350.0000124800001
  0
LINE
  5
1F8
  8
GR1_01
  6
CONTINUOUS
 62
     3
 10
-401.7914157727278
 20
90.80631327644653
 30
0.0
 11
-401.7914157727278
 21
75.80631327644642
 31
0.0
  0
LINE
  5
1F9
  8
GR1_01
  6
CONTINUOUS
 62
     3
 10
-481.7914157727278
 20
90.80631327644653
 30
0.0
 11
-481.7914157727278
 21
75.80631327644642
 31
0.0
  0
POINT
  5
1FA
  8
17
  6
CONTINUOUS
 62
     3
 10
-1002.380308622078
 20
363.9484427012701
 30
0.0
  0
LINE
  5
1FB
  8
200
  6
CONTINUOUS
 62
     3
 10
-902.3803086220782
 20
238.9484427012701
 30
0.0
 11
-877.3803086220782
 21
238.9484427012701
 31
0.0
  0
LINE
  5
1FC
  8
200
  6
CONTINUOUS
 62
     3
 10
-1127.380308622078
 20
238.9484427012701
 30
0.0
 11
-1102.380308622078
 21
238.9484427012701
 31
0.0
  0
LINE
  5
1FD
  8
200
  6
CONTINUOUS
 62
     3
 10
-877.3803086220782
 20
238.9484427012701
 30
0.0
 11
-877.3803086220782
 21
488.9484427012701
 31
0.0
  0
LINE
  5
1FE
  8
200
  6
CONTINUOUS
 62
     3
 10
-1102.380308622078
 20
488.9484427012701
 30
0.0
 11
-1127.380308622078
 21
488.9484427012701
 31
0.0
  0
LINE
  5
1FF
  8
200
  6
CONTINUOUS
 62
     3
 10
-877.3803086220782
 20
488.9484427012701
 30
0.0
 11
-902.3803086220782
 21
488.9484427012701
 31
0.0
  0
LINE
  5
200
  8
200
  6
CONTINUOUS
 62
     3
 10
-1127.380308622078
 20
488.9484427012701
 30
0.0
 11
-1127.380308622078
 21
238.9484427012701
 31
0.0
  0
CIRCLE
  5
201
  8
250
  6
CONTINUOUS
 62
     3
 10
-1002.380308622078
 20
403.9484427012701
 30
0.0
 40
25.38632876
  0
LINE
  5
202
  8
250
  6
CONTINUOUS
 62
     3
 10
-986.9494708920784
 20
387.79989158127
 30
0.0
 11
-986.2317575020782
 21
388.5176049712702
 31
0.0
  0
LINE
  5
203
  8
250
  6
CONTINUOUS
 62
     3
 10
-1002.380308622078
 20
404.6661560812702
 30
0.0
 11
-1017.811146352078
 21
420.0969938212702
 31
0.0
  0
LINE
  5
204
  8
250
  6
CONTINUOUS
 62
     3
 10
-1102.380308622078
 20
238.9484427012701
 30
0.0
 11
-902.3803086220782
 21
238.9484427012701
 31
0.0
  0
LINE
  5
205
  8
250
  6
CONTINUOUS
 62
     3
 10
-1003.098022002078
 20
403.9484427012701
 30
0.0
 11
-1018.528859742078
 21
388.5176049712702
 31
0.0
  0
LINE
  5
206
  8
250
  6
CONTINUOUS
 62
     3
 10
-1018.528859742078
 20
419.37928043127
 30
0.0
 11
-1003.098022002078
 21
403.9484427012701
 31
0.0
  0
LINE
  5
207
  8
250
  6
CONTINUOUS
 62
     3
 10
-986.2317575020782
 20
419.37928043127
 30
0.0
 11
-986.9494708920784
 21
420.0969938212702
 31
0.0
  0
LINE
  5
208
  8
250
  6
CONTINUOUS
 62
     3
 10
-1002.380308622078
 20
403.23072932127
 30
0.0
 11
-986.9494708920784
 21
387.79989158127
 31
0.0
  0
LINE
  5
209
  8
250
  6
CONTINUOUS
 62
     3
 10
-986.2317575020782
 20
388.5176049712702
 30
0.0
 11
-1001.662595242078
 21
403.9484427012701
 31
0.0
  0
LINE
  5
20A
  8
250
  6
CONTINUOUS
 62
     3
 10
-902.3803086220782
 20
238.9484427012701
 30
0.0
 11
-902.3803086220782
 21
488.9484427012701
 31
0.0
  0
LINE
  5
20B
  8
250
  6
CONTINUOUS
 62
     3
 10
-1001.662595242078
 20
403.9484427012701
 30
0.0
 11
-986.2317575020782
 21
419.37928043127
 31
0.0
  0
CIRCLE
  5
20C
  8
250
  6
CONTINUOUS
 62
     3
 10
-1002.380308622078
 20
323.9484427012701
 30
0.0
 40
25.38632876
  0
LINE
  5
20D
  8
250
  6
CONTINUOUS
 62
     3
 10
-1017.811146352078
 20
387.79989158127
 30
0.0
 11
-1002.380308622078
 21
403.23072932127
 31
0.0
  0
LINE
  5
20E
  8
250
  6
CONTINUOUS
 62
     3
 10
-1017.811146352078
 20
420.0969938212702
 30
0.0
 11
-1018.528859742078
 21
419.37928043127
 31
0.0
  0
LINE
  5
20F
  8
250
  6
CONTINUOUS
 62
     3
 10
-986.9494708920784
 20
420.0969938212702
 30
0.0
 11
-1002.380308622078
 21
404.6661560812702
 31
0.0
  0
CIRCLE
  5
210
  8
250
  6
CONTINUOUS
 62
     3
 10
-1002.380308622078
 20
323.9484427012701
 30
0.0
 40
21.56852114
  0
LINE
  5
211
  8
250
  6
CONTINUOUS
 62
     3
 10
-1102.380308622078
 20
488.9484427012701
 30
0.0
 11
-1102.380308622078
 21
238.9484427012701
 31
0.0
  0
LINE
  5
212
  8
250
  6
CONTINUOUS
 62
     3
 10
-902.3803086220782
 20
488.9484427012701
 30
0.0
 11
-1102.380308622078
 21
488.9484427012701
 31
0.0
  0
LINE
  5
213
  8
250
  6
CONTINUOUS
 62
     3
 10
-1018.528859742078
 20
388.5176049712702
 30
0.0
 11
-1017.811146352078
 21
387.79989158127
 31
0.0
  0
CIRCLE
  5
214
  8
GR1_02
  6
CONTINUOUS
 62
     3
 10
-1002.380308622078
 20
363.9636270112701
 30
0.0
 40
8.0
  0
CIRCLE
  5
215
  8
GR1_02
  6
CONTINUOUS
 62
     3
 10
-1002.380308622078
 20
363.9636270112701
 30
0.0
 40
3.1468304
  0
CIRCLE
  5
217
  8
GR1_02
  6
HIDDEN
 62
     3
 10
-1002.380308622078
 20
382.9636270112701
 30
0.0
 40
2.495
  0
CIRCLE
  5
218
  8
GR1_02
  6
HIDDEN
 62
     3
 10
-1002.380308622078
 20
382.9636270112701
 30
0.0
 40
5.0
  0
LINE
  5
219
  8
GR1_02
  6
HIDDEN
 62
     3
 10
-1004.880308632078
 20
384.40700269127
 30
0.0
 11
-1004.880308632078
 21
381.5202513312702
 31
0.0
  0
LINE
  5
21A
  8
GR1_02
  6
HIDDEN
 62
     3
 10
-1002.380308622078
 20
380.07687565127
 30
0.0
 11
-999.8803086120784
 21
381.5202513312702
 31
0.0
  0
CIRCLE
  5
21B
  8
GR1_02
  6
HIDDEN
 62
     3
 10
-1002.380308622078
 20
382.9636270112701
 30
0.0
 40
0.000005
  0
LINE
  5
21C
  8
GR1_02
  6
HIDDEN
 62
     3
 10
-999.8803086120784
 20
381.5202513312702
 30
0.0
 11
-999.8803086120784
 21
384.40700269127
 31
0.0
  0
CIRCLE
  5
21D
  8
GR1_02
  6
HIDDEN
 62
     3
 10
-1002.380308622078
 20
382.9636270112701
 30
0.0
 40
3.0
  0
LINE
  5
21E
  8
GR1_02
  6
HIDDEN
 62
     3
 10
-1002.380308622078
 20
385.8503783712702
 30
0.0
 11
-1004.880308632078
 21
384.40700269127
 31
0.0
  0
LINE
  5
21F
  8
GR1_02
  6
HIDDEN
 62
     3
 10
-1004.880308632078
 20
381.5202513312702
 30
0.0
 11
-1002.380308622078
 21
380.07687565127
 31
0.0
  0
LINE
  5
220
  8
GR1_02
  6
HIDDEN
 62
     3
 10
-999.8803086120784
 20
384.40700269127
 30
0.0
 11
-1002.380308622078
 21
385.8503783712702
 31
0.0
  0
LINE
  5
221
  8
GR1_02
  6
HIDDEN
 62
     3
 10
-999.8803086120784
 20
346.40700269127
 30
0.0
 11
-1002.380308622078
 21
347.8503783712702
 31
0.0
  0
CIRCLE
  5
222
  8
GR1_02
  6
HIDDEN
 62
     3
 10
-1002.380308622078
 20
344.9636270112701
 30
0.0
 40
5.0
  0
LINE
  5
223
  8
GR1_02
  6
HIDDEN
 62
     3
 10
-1002.380308622078
 20
342.07687565127
 30
0.0
 11
-999.8803086120784
 21
343.5202513312702
 31
0.0
  0
CIRCLE
  5
224
  8
GR1_02
  6
HIDDEN
 62
     3
 10
-1002.380308622078
 20
344.9636270112701
 30
0.0
 40
0.000005
  0
LINE
  5
225
  8
GR1_02
  6
HIDDEN
 62
     3
 10
-1004.880308632078
 20
346.40700269127
 30
0.0
 11
-1004.880308632078
 21
343.5202513312702
 31
0.0
  0
LINE
  5
226
  8
GR1_02
  6
HIDDEN
 62
     3
 10
-999.8803086120784
 20
343.5202513312702
 30
0.0
 11
-999.8803086120784
 21
346.40700269127
 31
0.0
  0
LINE
  5
227
  8
GR1_02
  6
HIDDEN
 62
     3
 10
-1002.380308622078
 20
347.8503783712702
 30
0.0
 11
-1004.880308632078
 21
346.40700269127
 31
0.0
  0
CIRCLE
  5
228
  8
GR1_02
  6
HIDDEN
 62
     3
 10
-1002.380308622078
 20
344.9636270112701
 30
0.0
 40
3.0
  0
CIRCLE
  5
229
  8
GR1_02
  6
HIDDEN
 62
     3
 10
-1002.380308622078
 20
344.9636270112701
 30
0.0
 40
2.495
  0
LINE
  5
22A
  8
GR1_02
  6
HIDDEN
 62
     3
 10
-1004.880308632078
 20
343.5202513312702
 30
0.0
 11
-1002.380308622078
 21
342.07687565127
 31
0.0
  0
CIRCLE
  5
22B
  8
GR1_02
  6
HIDDEN
 62
     3
 10
-925.3803086220782
 20
261.9484427012701
 30
0.0
 40
10.5
  0
CIRCLE
  5
22C
  8
GR1_02
  6
HIDDEN
 62
     3
 10
-925.3803086220782
 20
261.9484427012701
 30
0.0
 40
17.5
  0
CIRCLE
  5
22D
  8
GR1_02
  6
HIDDEN
 62
     3
 10
-925.3803086220782
 20
261.9484427012701
 30
0.0
 40
10.0
  0
CIRCLE
  5
22E
  8
GR1_02
  6
HIDDEN
 62
     3
 10
-925.3803086220782
 20
261.9484427012701
 30
0.0
 40
15.0
  0
CIRCLE
  5
22F
  8
GR1_02
  6
HIDDEN
 62
     3
 10
-1079.380308622078
 20
263.9484427012701
 30
0.0
 40
10.5
  0
CIRCLE
  5
230
  8
GR1_02
  6
HIDDEN
 62
     3
 10
-1079.380308622078
 20
263.9484427012701
 30
0.0
 40
17.5
  0
CIRCLE
  5
231
  8
GR1_02
  6
HIDDEN
 62
     3
 10
-1079.380308622078
 20
263.9484427012701
 30
0.0
 40
15.0
  0
CIRCLE
  5
232
  8
GR1_02
  6
HIDDEN
 62
     3
 10
-1079.380308622078
 20
263.9484427012701
 30
0.0
 40
10.0
  0
CIRCLE
  5
233
  8
GR1_12
  6
HIDDEN
 62
     3
 10
-1082.380308622078
 20
428.9484427012701
 30
0.0
 40
9.0
  0
LINE
  5
234
  8
GR1_12
  6
HIDDEN
 62
     3
 10
-1088.153811312078
 20
425.6151093712701
 30
0.0
 11
-1082.380308622078
 21
422.2817760312701
 31
0.0
  0
LINE
  5
235
  8
GR1_12
  6
HIDDEN
 62
     3
 10
-1082.380308622078
 20
422.2817760312701
 30
0.0
 11
-1076.606805932078
 21
425.6151093712701
 31
0.0
  0
LINE
  5
236
  8
GR1_12
  6
HIDDEN
 62
     3
 10
-1076.606805932078
 20
432.2817760312701
 30
0.0
 11
-1082.380308622078
 21
435.6151093712701
 31
0.0
  0
CIRCLE
  5
237
  8
GR1_12
  6
HIDDEN
 62
     3
 10
-1082.380308622078
 20
428.9484427012701
 30
0.0
 40
4.995
  0
CIRCLE
  5
238
  8
GR1_12
  6
HIDDEN
 62
     3
 10
-1082.380308622078
 20
428.9484427012701
 30
0.0
 40
0.000005
  0
LINE
  5
239
  8
GR1_12
  6
HIDDEN
 62
     3
 10
-1088.153811312078
 20
432.2817760312701
 30
0.0
 11
-1088.153811312078
 21
425.6151093712701
 31
0.0
  0
LINE
  5
23A
  8
GR1_12
  6
HIDDEN
 62
     3
 10
-1082.380308622078
 20
435.6151093712701
 30
0.0
 11
-1088.153811312078
 21
432.2817760312701
 31
0.0
  0
LINE
  5
23B
  8
GR1_12
  6
HIDDEN
 62
     3
 10
-1076.606805932078
 20
425.6151093712701
 30
0.0
 11
-1076.606805932078
 21
432.2817760312701
 31
0.0
  0
CIRCLE
  5
23C
  8
GR1_12
  6
HIDDEN
 62
     3
 10
-1082.380308622078
 20
428.9484427012701
 30
0.0
 40
6.0
  0
LINE
  5
23D
  8
GR1_12
  6
HIDDEN
 62
     3
 10
-928.1538113120782
 20
302.2817760312701
 30
0.0
 11
-928.1538113120782
 21
295.6151093712701
 31
0.0
  0
LINE
  5
23E
  8
GR1_12
  6
HIDDEN
 62
     3
 10
-916.6068059320783
 20
302.2817760312701
 30
0.0
 11
-922.3803086220782
 21
305.6151093712701
 31
0.0
  0
LINE
  5
23F
  8
GR1_12
  6
HIDDEN
 62
     3
 10
-928.1538113120782
 20
295.6151093712701
 30
0.0
 11
-922.3803086220782
 21
292.2817760312701
 31
0.0
  0
LINE
  5
240
  8
GR1_12
  6
HIDDEN
 62
     3
 10
-922.3803086220782
 20
292.2817760312701
 30
0.0
 11
-916.6068059320783
 21
295.6151093712701
 31
0.0
  0
CIRCLE
  5
241
  8
GR1_12
  6
HIDDEN
 62
     3
 10
-922.3803086220782
 20
298.9484427012701
 30
0.0
 40
9.0
  0
CIRCLE
  5
242
  8
GR1_12
  6
HIDDEN
 62
     3
 10
-922.3803086220782
 20
298.9484427012701
 30
0.0
 40
0.000005
  0
CIRCLE
  5
243
  8
GR1_12
  6
HIDDEN
 62
     3
 10
-922.3803086220782
 20
298.9484427012701
 30
0.0
 40
6.0
  0
LINE
  5
244
  8
GR1_12
  6
HIDDEN
 62
     3
 10
-916.6068059320783
 20
295.6151093712701
 30
0.0
 11
-916.6068059320783
 21
302.2817760312701
 31
0.0
  0
LINE
  5
245
  8
GR1_12
  6
HIDDEN
 62
     3
 10
-922.3803086220782
 20
305.6151093712701
 30
0.0
 11
-928.1538113120782
 21
302.2817760312701
 31
0.0
  0
CIRCLE
  5
246
  8
GR1_12
  6
HIDDEN
 62
     3
 10
-922.3803086220782
 20
298.9484427012701
 30
0.0
 40
4.995
  0
CIRCLE
  5
247
  8
GR1_02
  6
HIDDEN
 62
     3
 10
-925.3803086220782
 20
465.9484427012701
 30
0.0
 40
17.5
  0
CIRCLE
  5
248
  8
GR1_02
  6
HIDDEN
 62
     3
 10
-925.3803086220782
 20
465.9484427012701
 30
0.0
 40
10.0
  0
CIRCLE
  5
249
  8
GR1_02
  6
HIDDEN
 62
     3
 10
-925.3803086220782
 20
465.9484427012701
 30
0.0
 40
10.5
  0
CIRCLE
  5
24A
  8
GR1_02
  6
HIDDEN
 62
     3
 10
-925.3803086220782
 20
465.9484427012701
 30
0.0
 40
15.0
  0
LINE
  5
24B
  8
GR1_12
  6
HIDDEN
 62
     3
 10
-922.3803086220782
 20
435.6151093712701
 30
0.0
 11
-928.1538113120782
 21
432.2817760312701
 31
0.0
  0
CIRCLE
  5
24C
  8
GR1_12
  6
HIDDEN
 62
     3
 10
-922.3803086220782
 20
428.9484427012701
 30
0.0
 40
6.0
  0
LINE
  5
24D
  8
GR1_12
  6
HIDDEN
 62
     3
 10
-928.1538113120782
 20
432.2817760312701
 30
0.0
 11
-928.1538113120782
 21
425.6151093712701
 31
0.0
  0
LINE
  5
24E
  8
GR1_12
  6
HIDDEN
 62
     3
 10
-916.6068059320783
 20
432.2817760312701
 30
0.0
 11
-922.3803086220782
 21
435.6151093712701
 31
0.0
  0
LINE
  5
24F
  8
GR1_12
  6
HIDDEN
 62
     3
 10
-922.3803086220782
 20
422.2817760312701
 30
0.0
 11
-916.6068059320783
 21
425.6151093712701
 31
0.0
  0
CIRCLE
  5
250
  8
GR1_12
  6
HIDDEN
 62
     3
 10
-922.3803086220782
 20
428.9484427012701
 30
0.0
 40
0.000005
  0
LINE
  5
251
  8
GR1_12
  6
HIDDEN
 62
     3
 10
-928.1538113120782
 20
425.6151093712701
 30
0.0
 11
-922.3803086220782
 21
422.2817760312701
 31
0.0
  0
CIRCLE
  5
252
  8
GR1_12
  6
HIDDEN
 62
     3
 10
-922.3803086220782
 20
428.9484427012701
 30
0.0
 40
4.995
  0
CIRCLE
  5
253
  8
GR1_12
  6
HIDDEN
 62
     3
 10
-922.3803086220782
 20
428.9484427012701
 30
0.0
 40
9.0
  0
LINE
  5
254
  8
GR1_12
  6
HIDDEN
 62
     3
 10
-916.6068059320783
 20
425.6151093712701
 30
0.0
 11
-916.6068059320783
 21
432.2817760312701
 31
0.0
  0
CIRCLE
  5
255
  8
GR1_02
  6
HIDDEN
 62
     3
 10
-1002.380308622078
 20
406.4636270112701
 30
0.0
 40
2.495
  0
CIRCLE
  5
256
  8
GR1_02
  6
HIDDEN
 62
     3
 10
-1002.380308622078
 20
406.4636270112701
 30
0.0
 40
3.0
  0
CIRCLE
  5
257
  8
GR1_02
  6
HIDDEN
 62
     3
 10
-1002.380308622078
 20
406.4636270112701
 30
0.0
 40
5.0
  0
LINE
  5
258
  8
GR1_02
  6
HIDDEN
 62
     3
 10
-1002.380308622078
 20
403.57687565127
 30
0.0
 11
-999.8803086120784
 21
405.0202513312702
 31
0.0
  0
LINE
  5
259
  8
GR1_02
  6
HIDDEN
 62
     3
 10
-1002.380308622078
 20
409.3503783712702
 30
0.0
 11
-1004.880308632078
 21
407.90700269127
 31
0.0
  0
LINE
  5
25A
  8
GR1_02
  6
HIDDEN
 62
     3
 10
-999.8803086120784
 20
405.0202513312702
 30
0.0
 11
-999.8803086120784
 21
407.90700269127
 31
0.0
  0
LINE
  5
25B
  8
GR1_02
  6
HIDDEN
 62
     3
 10
-999.8803086120784
 20
407.90700269127
 30
0.0
 11
-1002.380308622078
 21
409.3503783712702
 31
0.0
  0
LINE
  5
25C
  8
GR1_02
  6
HIDDEN
 62
     3
 10
-1004.880308632078
 20
407.90700269127
 30
0.0
 11
-1004.880308632078
 21
405.0202513312702
 31
0.0
  0
LINE
  5
25D
  8
GR1_02
  6
HIDDEN
 62
     3
 10
-1004.880308632078
 20
405.0202513312702
 30
0.0
 11
-1002.380308622078
 21
403.57687565127
 31
0.0
  0
CIRCLE
  5
25E
  8
GR1_02
  6
HIDDEN
 62
     3
 10
-1002.380308622078
 20
406.4636270112701
 30
0.0
 40
0.000005
  0
CIRCLE
  5
25F
  8
GR1_02
  6
HIDDEN
 62
     3
 10
-1079.380308622078
 20
465.9484427012701
 30
0.0
 40
17.5
  0
CIRCLE
  5
260
  8
GR1_02
  6
HIDDEN
 62
     3
 10
-1079.380308622078
 20
465.9484427012701
 30
0.0
 40
10.0
  0
CIRCLE
  5
261
  8
GR1_02
  6
HIDDEN
 62
     3
 10
-1079.380308622078
 20
465.9484427012701
 30
0.0
 40
10.5
  0
CIRCLE
  5
262
  8
GR1_02
  6
HIDDEN
 62
     3
 10
-1079.380308622078
 20
465.9484427012701
 30
0.0
 40
15.0
  0
LINE
  5
263
  8
GR1_02
  6
HIDDEN
 62
     3
 10
-1002.380308622078
 20
324.3503783712702
 30
0.0
 11
-1004.880308632078
 21
322.90700269127
 31
0.0
  0
CIRCLE
  5
264
  8
GR1_02
  6
HIDDEN
 62
     3
 10
-1002.380308622078
 20
321.4636270112701
 30
0.0
 40
2.495
  0
LINE
  5
265
  8
GR1_02
  6
HIDDEN
 62
     3
 10
-1004.880308632078
 20
322.90700269127
 30
0.0
 11
-1004.880308632078
 21
320.0202513312702
 31
0.0
  0
LINE
  5
266
  8
GR1_02
  6
HIDDEN
 62
     3
 10
-1002.380308622078
 20
318.57687565127
 30
0.0
 11
-999.8803086120784
 21
320.0202513312702
 31
0.0
  0
CIRCLE
  5
267
  8
GR1_02
  6
HIDDEN
 62
     3
 10
-1002.380308622078
 20
321.4636270112701
 30
0.0
 40
5.0
  0
LINE
  5
268
  8
GR1_02
  6
HIDDEN
 62
     3
 10
-1004.880308632078
 20
320.0202513312702
 30
0.0
 11
-1002.380308622078
 21
318.57687565127
 31
0.0
  0
CIRCLE
  5
269
  8
GR1_02
  6
HIDDEN
 62
     3
 10
-1002.380308622078
 20
321.4636270112701
 30
0.0
 40
3.0
  0
LINE
  5
26A
  8
GR1_02
  6
HIDDEN
 62
     3
 10
-999.8803086120784
 20
322.90700269127
 30
0.0
 11
-1002.380308622078
 21
324.3503783712702
 31
0.0
  0
LINE
  5
26B
  8
GR1_02
  6
HIDDEN
 62
     3
 10
-999.8803086120784
 20
320.0202513312702
 30
0.0
 11
-999.8803086120784
 21
322.90700269127
 31
0.0
  0
CIRCLE
  5
26C
  8
GR1_02
  6
HIDDEN
 62
     3
 10
-1002.380308622078
 20
321.4636270112701
 30
0.0
 40
0.000005
  0
CIRCLE
  5
26D
  8
GR1_02
  6
HIDDEN
 62
     3
 10
-1002.380308622078
 20
321.4636270112701
 30
0.0
 40
3.25
  0
CIRCLE
  5
26E
  8
GR1_02
  6
HIDDEN
 62
     3
 10
-1002.380308622078
 20
406.4636270112701
 30
0.0
 40
3.25
  0
CIRCLE
  5
26F
  8
GR1_02
  6
HIDDEN
 62
     3
 10
-1002.380308622078
 20
363.9636270112701
 30
0.0
 40
35.0
  0
CIRCLE
  5
270
  8
GR1_02
  6
HIDDEN
 62
     3
 10
-1002.380308622078
 20
363.9636270112701
 30
0.0
 40
50.0
  0
CIRCLE
  5
271
  8
GR1_02
  6
HIDDEN
 62
     3
 10
-1002.380308622078
 20
406.4636270112701
 30
0.0
 40
5.5
  0
CIRCLE
  5
272
  8
GR1_02
  6
HIDDEN
 62
     3
 10
-1002.380308622078
 20
321.4636270112701
 30
0.0
 40
5.5
  0
LINE
  5
273
  8
GR1_12
  6
HIDDEN
 62
     3
 10
-1076.606805932078
 20
295.6151093712701
 30
0.0
 11
-1076.606805932078
 21
302.2817760312701
 31
0.0
  0
CIRCLE
  5
274
  8
GR1_12
  6
HIDDEN
 62
     3
 10
-1082.380308622078
 20
298.9484427012701
 30
0.0
 40
0.000005
  0
LINE
  5
275
  8
GR1_12
  6
HIDDEN
 62
     3
 10
-1076.606805932078
 20
302.2817760312701
 30
0.0
 11
-1082.380308622078
 21
305.6151093712701
 31
0.0
  0
LINE
  5
276
  8
GR1_12
  6
HIDDEN
 62
     3
 10
-1082.380308622078
 20
292.2817760312701
 30
0.0
 11
-1076.606805932078
 21
295.6151093712701
 31
0.0
  0
CIRCLE
  5
277
  8
GR1_12
  6
HIDDEN
 62
     3
 10
-1082.380308622078
 20
298.9484427012701
 30
0.0
 40
9.0
  0
LINE
  5
278
  8
GR1_12
  6
HIDDEN
 62
     3
 10
-1082.380308622078
 20
305.6151093712701
 30
0.0
 11
-1088.153811312078
 21
302.2817760312701
 31
0.0
  0
CIRCLE
  5
279
  8
GR1_12
  6
HIDDEN
 62
     3
 10
-1082.380308622078
 20
298.9484427012701
 30
0.0
 40
6.0
  0
CIRCLE
  5
27A
  8
GR1_12
  6
HIDDEN
 62
     3
 10
-1082.380308622078
 20
298.9484427012701
 30
0.0
 40
4.995
  0
LINE
  5
27B
  8
GR1_12
  6
HIDDEN
 62
     3
 10
-1088.153811312078
 20
302.2817760312701
 30
0.0
 11
-1088.153811312078
 21
295.6151093712701
 31
0.0
  0
LINE
  5
27C
  8
GR1_12
  6
HIDDEN
 62
     3
 10
-1088.153811312078
 20
295.6151093712701
 30
0.0
 11
-1082.380308622078
 21
292.2817760312701
 31
0.0
  0
CIRCLE
  5
27D
  8
GR1_02
  6
HIDDEN
 62
     3
 10
-1002.380308622078
 20
382.9636270112701
 30
0.0
 40
5.5
  0
CIRCLE
  5
27E
  8
GR1_02
  6
HIDDEN
 62
     3
 10
-1002.380308622078
 20
363.9636270112701
 30
0.0
 40
1.74756072
  0
CIRCLE
  5
27F
  8
GR1_02
  6
HIDDEN
 62
     3
 10
-1002.380308622078
 20
363.9636270112701
 30
0.0
 40
25.0
  0
CIRCLE
  5
280
  8
GR1_02
  6
HIDDEN
 62
     3
 10
-1002.380308622078
 20
344.9636270112701
 30
0.0
 40
5.5
  0
CIRCLE
  5
281
  8
GR1_02
  6
HIDDEN
 62
     3
 10
-1002.380308622078
 20
363.9636270112701
 30
0.0
 40
9.21954446
  0
CIRCLE
  5
282
  8
GR1_02
  6
HIDDEN
 62
     3
 10
-1002.380308622078
 20
344.9636270112701
 30
0.0
 40
3.25
  0
CIRCLE
  5
283
  8
GR1_02
  6
HIDDEN
 62
     3
 10
-1002.380308622078
 20
382.9636270112701
 30
0.0
 40
3.25
  0
CIRCLE
  5
284
  8
250
  6
CONTINUOUS
 62
     3
 10
-1002.380308622078
 20
403.9484427012701
 30
0.0
 40
25.37095392
  0
POINT
  5
285
  8
17
  6
CONTINUOUS
 62
     3
 10
-723.0661697640185
 20
363.9484427012701
 30
0.0
  0
CIRCLE
  5
286
  8
9
  6
CONTINUOUS
 62
     3
 10
-800.0661697640185
 20
261.9484427012701
 30
0.0
 40
10.0
  0
LINE
  5
287
  8
GR1_15
  6
CONTINUOUS
 62
     3
 10
-823.0661697640185
 20
488.9484427012701
 30
0.0
 11
-823.0661697640185
 21
238.9484427012701
 31
0.0
  0
LINE
  5
288
  8
GR1_15
  6
CONTINUOUS
 62
     3
 10
-823.0661697640185
 20
238.9484427012701
 30
0.0
 11
-623.0661697640185
 21
238.9484427012701
 31
0.0
  0
LINE
  5
289
  8
GR1_15
  6
CONTINUOUS
 62
     3
 10
-623.0661697640185
 20
238.9484427012701
 30
0.0
 11
-623.0661697640185
 21
488.9484427012701
 31
0.0
  0
LINE
  5
28A
  8
GR1_15
  6
CONTINUOUS
 62
     3
 10
-623.0661697640185
 20
488.9484427012701
 30
0.0
 11
-823.0661697640185
 21
488.9484427012701
 31
0.0
  0
CIRCLE
  5
28B
  8
8
  6
CONTINUOUS
 62
     3
 10
-763.0661697640185
 20
263.9484427012701
 30
0.0
 40
7.5
  0
CIRCLE
  5
28C
  8
9
  6
CONTINUOUS
 62
     3
 10
-646.0661697640185
 20
263.9484427012701
 30
0.0
 40
10.0
  0
CIRCLE
  5
28D
  8
9
  6
CONTINUOUS
 62
     3
 10
-800.0661697640185
 20
465.9484427012701
 30
0.0
 40
10.0
  0
LINE
  5
28F
  8
GR1_10
  6
CONTINUOUS
 62
     3
 10
-598.0661697640185
 20
238.9484427012701
 30
0.0
 11
-598.0661697640185
 21
488.9484427012701
 31
0.0
  0
LINE
  5
290
  8
GR1_10
  6
CONTINUOUS
 62
     3
 10
-623.0661697640185
 20
238.9484427012701
 30
0.0
 11
-598.0661697640185
 21
238.9484427012701
 31
0.0
  0
LINE
  5
291
  8
GR1_10
  6
CONTINUOUS
 62
     3
 10
-848.0661697640185
 20
238.9484427012701
 30
0.0
 11
-823.0661697640185
 21
238.9484427012701
 31
0.0
  0
LINE
  5
292
  8
GR1_10
  6
CONTINUOUS
 62
     3
 10
-848.0661697640185
 20
488.9484427012701
 30
0.0
 11
-848.0661697640185
 21
238.9484427012701
 31
0.0
  0
LINE
  5
293
  8
GR1_10
  6
CONTINUOUS
 62
     3
 10
-823.0661697640185
 20
488.9484427012701
 30
0.0
 11
-848.0661697640185
 21
488.9484427012701
 31
0.0
  0
LINE
  5
294
  8
GR1_10
  6
CONTINUOUS
 62
     3
 10
-598.0661697640185
 20
488.9484427012701
 30
0.0
 11
-623.0661697640185
 21
488.9484427012701
 31
0.0
  0
LINE
  5
295
  8
7
  6
CONTINUOUS
 62
     3
 10
-763.0661697640185
 20
289.9484427012701
 30
0.0
 11
-763.0661697640185
 21
437.9484427012701
 31
0.0
  0
LINE
  5
296
  8
7
  6
CONTINUOUS
 62
     3
 10
-757.0661697640185
 20
443.9484427012701
 30
0.0
 11
-689.0661697640185
 21
443.9484427012701
 31
0.0
  0
LINE
  5
297
  8
7
  6
CONTINUOUS
 62
     3
 10
-757.0661697640185
 20
283.9484427012701
 30
0.0
 11
-689.0661697640185
 21
283.9484427012701
 31
0.0
  0
LINE
  5
298
  8
7
  6
CONTINUOUS
 62
     3
 10
-683.0661697640185
 20
289.9484427012701
 30
0.0
 11
-683.0661697640185
 21
437.9484427012701
 31
0.0
  0
CIRCLE
  5
299
  8
9
  6
CONTINUOUS
 62
     3
 10
-646.0661697640185
 20
465.9484427012701
 30
0.0
 40
10.0
  0
CIRCLE
  5
29A
  8
8
  6
CONTINUOUS
 62
     3
 10
-683.0661697640185
 20
463.9484427012701
 30
0.0
 40
7.5
  0
CIRCLE
  5
29B
  8
8
  6
CONTINUOUS
 62
     3
 10
-683.0661697640185
 20
263.9484427012701
 30
0.0
 40
7.5
  0
CIRCLE
  5
29C
  8
8
  6
CONTINUOUS
 62
     3
 10
-763.0661697640185
 20
463.9484427012701
 30
0.0
 40
7.5
  0
CIRCLE
  5
29D
  8
9
  6
HIDDEN
 62
     3
 10
-800.0661697640185
 20
261.9484427012701
 30
0.0
 40
12.5
  0
CIRCLE
  5
29F
  8
10
  6
HIDDEN
 62
     3
 10
-643.0661697640185
 20
443.9484427012701
 30
0.0
 40
0.000005
  0
LINE
  5
2A0
  8
10
  6
HIDDEN
 62
     3
 10
-637.2926670740185
 20
447.2817760312701
 30
0.0
 11
-643.0661697640185
 21
450.6151093712701
 31
0.0
  0
CIRCLE
  5
2A1
  8
10
  6
HIDDEN
 62
     3
 10
-643.0661697640185
 20
443.9484427012701
 30
0.0
 40
4.995
  0
LINE
  5
2A2
  8
10
  6
HIDDEN
 62
     3
 10
-643.0661697640185
 20
450.6151093712701
 30
0.0
 11
-648.8396724540185
 21
447.2817760312701
 31
0.0
  0
LINE
  5
2A3
  8
10
  6
HIDDEN
 62
     3
 10
-637.2926670740185
 20
440.6151093712701
 30
0.0
 11
-637.2926670740185
 21
447.2817760312701
 31
0.0
  0
CIRCLE
  5
2A4
  8
10
  6
HIDDEN
 62
     3
 10
-643.0661697640185
 20
443.9484427012701
 30
0.0
 40
9.0
  0
LINE
  5
2A5
  8
10
  6
HIDDEN
 62
     3
 10
-648.8396724540185
 20
447.2817760312701
 30
0.0
 11
-648.8396724540185
 21
440.6151093712701
 31
0.0
  0
LINE
  5
2A6
  8
10
  6
HIDDEN
 62
     3
 10
-648.8396724540185
 20
440.6151093712701
 30
0.0
 11
-643.0661697640185
 21
437.2817760312701
 31
0.0
  0
CIRCLE
  5
2A7
  8
10
  6
HIDDEN
 62
     3
 10
-643.0661697640185
 20
443.9484427012701
 30
0.0
 40
6.0
  0
LINE
  5
2A8
  8
10
  6
HIDDEN
 62
     3
 10
-643.0661697640185
 20
437.2817760312701
 30
0.0
 11
-637.2926670740185
 21
440.6151093712701
 31
0.0
  0
LINE
  5
2A9
  8
10
  6
HIDDEN
 62
     3
 10
-803.0661697640185
 20
290.6151093712701
 30
0.0
 11
-808.8396724540185
 21
287.2817760312701
 31
0.0
  0
LINE
  5
2AA
  8
10
  6
HIDDEN
 62
     3
 10
-797.2926670740185
 20
280.6151093712701
 30
0.0
 11
-797.2926670740185
 21
287.2817760312701
 31
0.0
  0
LINE
  5
2AB
  8
10
  6
HIDDEN
 62
     3
 10
-797.2926670740185
 20
287.2817760312701
 30
0.0
 11
-803.0661697640185
 21
290.6151093712701
 31
0.0
  0
LINE
  5
2AC
  8
10
  6
HIDDEN
 62
     3
 10
-808.8396724540185
 20
280.6151093712701
 30
0.0
 11
-803.0661697640185
 21
277.2817760312701
 31
0.0
  0
CIRCLE
  5
2AD
  8
10
  6
HIDDEN
 62
     3
 10
-803.0661697640185
 20
283.9484427012701
 30
0.0
 40
9.0
  0
LINE
  5
2AE
  8
10
  6
HIDDEN
 62
     3
 10
-803.0661697640185
 20
277.2817760312701
 30
0.0
 11
-797.2926670740185
 21
280.6151093712701
 31
0.0
  0
CIRCLE
  5
2AF
  8
10
  6
HIDDEN
 62
     3
 10
-803.0661697640185
 20
283.9484427012701
 30
0.0
 40
0.000005
  0
CIRCLE
  5
2B0
  8
10
  6
HIDDEN
 62
     3
 10
-803.0661697640185
 20
283.9484427012701
 30
0.0
 40
6.0
  0
LINE
  5
2B1
  8
10
  6
HIDDEN
 62
     3
 10
-808.8396724540185
 20
287.2817760312701
 30
0.0
 11
-808.8396724540185
 21
280.6151093712701
 31
0.0
  0
CIRCLE
  5
2B2
  8
10
  6
HIDDEN
 62
     3
 10
-803.0661697640185
 20
283.9484427012701
 30
0.0
 40
4.995
  0
CIRCLE
  5
2B3
  8
8
  6
HIDDEN
 62
     3
 10
-763.0661697640185
 20
263.9484427012701
 30
0.0
 40
10.0
  0
CIRCLE
  5
2B4
  8
9
  6
HIDDEN
 62
     3
 10
-646.0661697640185
 20
263.9484427012701
 30
0.0
 40
12.5
  0
LINE
  5
2B5
  8
GR1_15
  6
HIDDEN
 62
     3
 10
-785.0661697640185
 20
238.9484427012701
 30
0.0
 11
-785.0661697640185
 21
488.9484427012701
 31
0.0
  0
LINE
  5
2B6
  8
10
  6
HIDDEN
 62
     3
 10
-676.5302713740184
 20
480.9484427012701
 30
0.0
 11
-676.5302713740184
 21
476.9484427012701
 31
0.0
  0
LINE
  5
2B7
  8
10
  6
HIDDEN
 62
     3
 10
-673.0661697640185
 20
482.9484427012701
 30
0.0
 11
-676.5302713740184
 21
480.9484427012701
 31
0.0
  0
LINE
  5
2B8
  8
10
  6
HIDDEN
 62
     3
 10
-676.5302713740184
 20
476.9484427012701
 30
0.0
 11
-673.0661697640185
 21
474.9484427012701
 31
0.0
  0
CIRCLE
  5
2B9
  8
10
  6
HIDDEN
 62
     3
 10
-673.0661697640185
 20
478.9484427012701
 30
0.0
 40
6.5
  0
CIRCLE
  5
2BA
  8
10
  6
HIDDEN
 62
     3
 10
-673.0661697640185
 20
478.9484427012701
 30
0.0
 40
2.995
  0
LINE
  5
2BB
  8
10
  6
HIDDEN
 62
     3
 10
-673.0661697640185
 20
474.9484427012701
 30
0.0
 11
-669.6020681440186
 21
476.9484427012701
 31
0.0
  0
LINE
  5
2BC
  8
10
  6
HIDDEN
 62
     3
 10
-669.6020681440186
 20
476.9484427012701
 30
0.0
 11
-669.6020681440186
 21
480.9484427012701
 31
0.0
  0
CIRCLE
  5
2BD
  8
10
  6
HIDDEN
 62
     3
 10
-673.0661697640185
 20
478.9484427012701
 30
0.0
 40
4.0
  0
LINE
  5
2BE
  8
10
  6
HIDDEN
 62
     3
 10
-669.6020681440186
 20
480.9484427012701
 30
0.0
 11
-673.0661697640185
 21
482.9484427012701
 31
0.0
  0
CIRCLE
  5
2BF
  8
10
  6
HIDDEN
 62
     3
 10
-673.0661697640185
 20
478.9484427012701
 30
0.0
 40
0.000005
  0
LINE
  5
2C0
  8
10
  6
HIDDEN
 62
     3
 10
-769.6020681440186
 20
476.9484427012701
 30
0.0
 11
-769.6020681440186
 21
480.9484427012701
 31
0.0
  0
CIRCLE
  5
2C1
  8
10
  6
HIDDEN
 62
     3
 10
-773.0661697640185
 20
478.9484427012701
 30
0.0
 40
0.000005
  0
CIRCLE
  5
2C2
  8
10
  6
HIDDEN
 62
     3
 10
-773.0661697640185
 20
478.9484427012701
 30
0.0
 40
2.995
  0
LINE
  5
2C3
  8
10
  6
HIDDEN
 62
     3
 10
-776.5302713740184
 20
476.9484427012701
 30
0.0
 11
-773.0661697640185
 21
474.9484427012701
 31
0.0
  0
LINE
  5
2C4
  8
10
  6
HIDDEN
 62
     3
 10
-773.0661697640185
 20
482.9484427012701
 30
0.0
 11
-776.5302713740184
 21
480.9484427012701
 31
0.0
  0
CIRCLE
  5
2C5
  8
10
  6
HIDDEN
 62
     3
 10
-773.0661697640185
 20
478.9484427012701
 30
0.0
 40
6.5
  0
LINE
  5
2C6
  8
10
  6
HIDDEN
 62
     3
 10
-776.5302713740184
 20
480.9484427012701
 30
0.0
 11
-776.5302713740184
 21
476.9484427012701
 31
0.0
  0
CIRCLE
  5
2C7
  8
10
  6
HIDDEN
 62
     3
 10
-773.0661697640185
 20
478.9484427012701
 30
0.0
 40
4.0
  0
LINE
  5
2C8
  8
10
  6
HIDDEN
 62
     3
 10
-769.6020681440186
 20
480.9484427012701
 30
0.0
 11
-773.0661697640185
 21
482.9484427012701
 31
0.0
  0
LINE
  5
2C9
  8
10
  6
HIDDEN
 62
     3
 10
-773.0661697640185
 20
474.9484427012701
 30
0.0
 11
-769.6020681440186
 21
476.9484427012701
 31
0.0
  0
CIRCLE
  5
2CA
  8
9
  6
HIDDEN
 62
     3
 10
-800.0661697640185
 20
465.9484427012701
 30
0.0
 40
12.5
  0
CIRCLE
  5
2CB
  8
9
  6
HIDDEN
 62
     3
 10
-646.0661697640185
 20
465.9484427012701
 30
0.0
 40
12.5
  0
CIRCLE
  5
2CC
  8
8
  6
HIDDEN
 62
     3
 10
-683.0661697640185
 20
463.9484427012701
 30
0.0
 40
10.0
  0
LINE
  5
2CD
  8
10
  6
HIDDEN
 62
     3
 10
-769.6020681440186
 20
250.9484427012701
 30
0.0
 11
-773.0661697640185
 21
252.9484427012701
 31
0.0
  0
CIRCLE
  5
2CE
  8
10
  6
HIDDEN
 62
     3
 10
-773.0661697640185
 20
248.9484427012701
 30
0.0
 40
4.0
  0
LINE
  5
2CF
  8
10
  6
HIDDEN
 62
     3
 10
-773.0661697640185
 20
244.9484427012701
 30
0.0
 11
-769.6020681440186
 21
246.9484427012701
 31
0.0
  0
LINE
  5
2D0
  8
10
  6
HIDDEN
 62
     3
 10
-776.5302713740184
 20
250.9484427012701
 30
0.0
 11
-776.5302713740184
 21
246.9484427012701
 31
0.0
  0
LINE
  5
2D1
  8
10
  6
HIDDEN
 62
     3
 10
-773.0661697640185
 20
252.9484427012701
 30
0.0
 11
-776.5302713740184
 21
250.9484427012701
 31
0.0
  0
LINE
  5
2D2
  8
10
  6
HIDDEN
 62
     3
 10
-769.6020681440186
 20
246.9484427012701
 30
0.0
 11
-769.6020681440186
 21
250.9484427012701
 31
0.0
  0
LINE
  5
2D3
  8
10
  6
HIDDEN
 62
     3
 10
-776.5302713740184
 20
246.9484427012701
 30
0.0
 11
-773.0661697640185
 21
244.9484427012701
 31
0.0
  0
CIRCLE
  5
2D4
  8
10
  6
HIDDEN
 62
     3
 10
-773.0661697640185
 20
248.9484427012701
 30
0.0
 40
6.5
  0
CIRCLE
  5
2D5
  8
10
  6
HIDDEN
 62
     3
 10
-773.0661697640185
 20
248.9484427012701
 30
0.0
 40
2.995
  0
CIRCLE
  5
2D6
  8
10
  6
HIDDEN
 62
     3
 10
-773.0661697640185
 20
248.9484427012701
 30
0.0
 40
0.000005
  0
LINE
  5
2D7
  8
GR1_15
  6
HIDDEN
 62
     3
 10
-783.0661697640185
 20
488.9484427012701
 30
0.0
 11
-783.0661697640185
 21
238.9484427012701
 31
0.0
  0
LINE
  5
2D8
  8
GR1_15
  6
HIDDEN
 62
     3
 10
-663.0661697640185
 20
238.9484427012701
 30
0.0
 11
-663.0661697640185
 21
488.9484427012701
 31
0.0
  0
LINE
  5
2D9
  8
10
  6
HIDDEN
 62
     3
 10
-637.2926670740185
 20
287.2817760312701
 30
0.0
 11
-643.0661697640185
 21
290.6151093712701
 31
0.0
  0
LINE
  5
2DA
  8
10
  6
HIDDEN
 62
     3
 10
-643.0661697640185
 20
290.6151093712701
 30
0.0
 11
-648.8396724540185
 21
287.2817760312701
 31
0.0
  0
CIRCLE
  5
2DB
  8
10
  6
HIDDEN
 62
     3
 10
-643.0661697640185
 20
283.9484427012701
 30
0.0
 40
9.0
  0
LINE
  5
2DC
  8
10
  6
HIDDEN
 62
     3
 10
-637.2926670740185
 20
280.6151093712701
 30
0.0
 11
-637.2926670740185
 21
287.2817760312701
 31
0.0
  0
CIRCLE
  5
2DD
  8
10
  6
HIDDEN
 62
     3
 10
-643.0661697640185
 20
283.9484427012701
 30
0.0
 40
0.000005
  0
CIRCLE
  5
2DE
  8
10
  6
HIDDEN
 62
     3
 10
-643.0661697640185
 20
283.9484427012701
 30
0.0
 40
6.0
  0
LINE
  5
2DF
  8
10
  6
HIDDEN
 62
     3
 10
-648.8396724540185
 20
287.2817760312701
 30
0.0
 11
-648.8396724540185
 21
280.6151093712701
 31
0.0
  0
LINE
  5
2E0
  8
10
  6
HIDDEN
 62
     3
 10
-643.0661697640185
 20
277.2817760312701
 30
0.0
 11
-637.2926670740185
 21
280.6151093712701
 31
0.0
  0
LINE
  5
2E1
  8
10
  6
HIDDEN
 62
     3
 10
-648.8396724540185
 20
280.6151093712701
 30
0.0
 11
-643.0661697640185
 21
277.2817760312701
 31
0.0
  0
CIRCLE
  5
2E2
  8
10
  6
HIDDEN
 62
     3
 10
-643.0661697640185
 20
283.9484427012701
 30
0.0
 40
4.995
  0
LINE
  5
2E3
  8
GR1_15
  6
HIDDEN
 62
     3
 10
-661.0661697640185
 20
488.9484427012701
 30
0.0
 11
-661.0661697640185
 21
238.9484427012701
 31
0.0
  0
LINE
  5
2E4
  8
10
  6
HIDDEN
 62
     3
 10
-803.0661697640185
 20
437.2817760312701
 30
0.0
 11
-797.2926670740185
 21
440.6151093712701
 31
0.0
  0
LINE
  5
2E5
  8
10
  6
HIDDEN
 62
     3
 10
-808.8396724540185
 20
440.6151093712701
 30
0.0
 11
-803.0661697640185
 21
437.2817760312701
 31
0.0
  0
CIRCLE
  5
2E6
  8
10
  6
HIDDEN
 62
     3
 10
-803.0661697640185
 20
443.9484427012701
 30
0.0
 40
4.995
  0
LINE
  5
2E7
  8
10
  6
HIDDEN
 62
     3
 10
-797.2926670740185
 20
440.6151093712701
 30
0.0
 11
-797.2926670740185
 21
447.2817760312701
 31
0.0
  0
LINE
  5
2E8
  8
10
  6
HIDDEN
 62
     3
 10
-803.0661697640185
 20
450.6151093712701
 30
0.0
 11
-808.8396724540185
 21
447.2817760312701
 31
0.0
  0
CIRCLE
  5
2E9
  8
10
  6
HIDDEN
 62
     3
 10
-803.0661697640185
 20
443.9484427012701
 30
0.0
 40
6.0
  0
LINE
  5
2EA
  8
10
  6
HIDDEN
 62
     3
 10
-808.8396724540185
 20
447.2817760312701
 30
0.0
 11
-808.8396724540185
 21
440.6151093712701
 31
0.0
  0
CIRCLE
  5
2EB
  8
10
  6
HIDDEN
 62
     3
 10
-803.0661697640185
 20
443.9484427012701
 30
0.0
 40
9.0
  0
LINE
  5
2EC
  8
10
  6
HIDDEN
 62
     3
 10
-797.2926670740185
 20
447.2817760312701
 30
0.0
 11
-803.0661697640185
 21
450.6151093712701
 31
0.0
  0
CIRCLE
  5
2ED
  8
10
  6
HIDDEN
 62
     3
 10
-803.0661697640185
 20
443.9484427012701
 30
0.0
 40
0.000005
  0
CIRCLE
  5
2EE
  8
8
  6
HIDDEN
 62
     3
 10
-683.0661697640185
 20
263.9484427012701
 30
0.0
 40
10.0
  0
LINE
  5
2EF
  8
10
  6
HIDDEN
 62
     3
 10
-673.0661697640185
 20
244.9484427012701
 30
0.0
 11
-669.6020681440186
 21
246.9484427012701
 31
0.0
  0
LINE
  5
2F0
  8
10
  6
HIDDEN
 62
     3
 10
-669.6020681440186
 20
250.9484427012701
 30
0.0
 11
-673.0661697640185
 21
252.9484427012701
 31
0.0
  0
CIRCLE
  5
2F1
  8
10
  6
HIDDEN
 62
     3
 10
-673.0661697640185
 20
248.9484427012701
 30
0.0
 40
2.995
  0
LINE
  5
2F2
  8
10
  6
HIDDEN
 62
     3
 10
-673.0661697640185
 20
252.9484427012701
 30
0.0
 11
-676.5302713740184
 21
250.9484427012701
 31
0.0
  0
LINE
  5
2F3
  8
10
  6
HIDDEN
 62
     3
 10
-669.6020681440186
 20
246.9484427012701
 30
0.0
 11
-669.6020681440186
 21
250.9484427012701
 31
0.0
  0
LINE
  5
2F4
  8
10
  6
HIDDEN
 62
     3
 10
-676.5302713740184
 20
246.9484427012701
 30
0.0
 11
-673.0661697640185
 21
244.9484427012701
 31
0.0
  0
LINE
  5
2F5
  8
10
  6
HIDDEN
 62
     3
 10
-676.5302713740184
 20
250.9484427012701
 30
0.0
 11
-676.5302713740184
 21
246.9484427012701
 31
0.0
  0
CIRCLE
  5
2F6
  8
10
  6
HIDDEN
 62
     3
 10
-673.0661697640185
 20
248.9484427012701
 30
0.0
 40
6.5
  0
CIRCLE
  5
2F7
  8
10
  6
HIDDEN
 62
     3
 10
-673.0661697640185
 20
248.9484427012701
 30
0.0
 40
0.000005
  0
CIRCLE
  5
2F8
  8
10
  6
HIDDEN
 62
     3
 10
-673.0661697640185
 20
248.9484427012701
 30
0.0
 40
4.0
  0
CIRCLE
  5
2F9
  8
8
  6
HIDDEN
 62
     3
 10
-763.0661697640185
 20
463.9484427012701
 30
0.0
 40
10.0
  0
LINE
  5
2FA
  8
GR1_01
  6
CONTINUOUS
 62
     3
 10
-701.7098410140184
 20
105.8063132764463
 30
0.0
 11
-692.0798591468637
 21
-4.264883139780466
 31
0.0
  0
LINE
  5
2FB
  8
GR1_01
  6
CONTINUOUS
 62
     3
 10
-709.5056446260456
 20
126.0704768299563
 30
0.0
 11
-698.0570273354141
 21
-4.787817596266393
 31
0.0
  0
LINE
  5
2FC
  8
GR1_01
  6
CONTINUOUS
 62
     3
 10
-692.0798591468637
 20
-4.264883139780466
 30
0.0
 11
-698.0570273354141
 21
-4.787817596266393
 31
0.0
  0
LINE
  5
2FD
  8
250
  6
CONTINUOUS
 62
     3
 10
-699.7098410140184
 20
105.8063132764463
 30
0.0
 11
-623.0661697640185
 21
105.8063132764463
 31
0.0
  0
LINE
  5
2FE
  8
GR1_01
  6
CONTINUOUS
 62
     3
 10
-699.7098410140184
 20
105.8063132764463
 30
0.0
 11
-701.7098410140184
 21
105.8063132764463
 31
0.0
  0
LINE
  5
2FF
  8
7
  6
CONTINUOUS
 62
     3
 10
-686.8136777578545
 20
-9.193686723553583
 30
0.0
 11
-706.8136777578545
 21
-9.193686723553583
 31
0.0
  0
LINE
  5
300
  8
7
  6
CONTINUOUS
 62
     3
 10
-686.8136777578545
 20
-0.1936867235535829
 30
0.0
 11
-692.4360426802709
 21
-0.1936867235535829
 31
0.0
  0
LINE
  5
301
  8
GR1_01
  6
CONTINUOUS
 62
     3
 10
-686.8136777578545
 20
-0.1936867235535829
 30
0.0
 11
-686.8136777578545
 21
-14.19368672355358
 31
0.0
  0
LINE
  5
302
  8
GR1_01
  6
CONTINUOUS
 62
     3
 10
-706.8136777578545
 20
-0.1936867235535829
 30
0.0
 11
-706.8136777578545
 21
-14.19368672355358
 31
0.0
  0
LINE
  5
303
  8
GR1_01
  6
DASHDOT
 62
     3
 10
-723.0661697640185
 20
210.8063132764463
 30
0.0
 11
-723.0661697640185
 21
-59.1936867235537
 31
0.0
  0
LINE
  5
304
  8
7
  6
DIVIDE
 62
     6
 10
-690.7506676165209
 20
35.80631327644636
 30
0.0
 11
-710.7506676165209
 21
35.80631327644636
 31
0.0
  0
LINE
  5
305
  8
7
  6
DIVIDE
 62
     6
 10
-690.7506676165209
 20
44.80631327644636
 30
0.0
 11
-710.7506676165209
 21
44.80631327644636
 31
0.0
  0
LINE
  5
306
  8
GR1_01
  6
DIVIDE
 62
     6
 10
-690.7506676165209
 20
44.80631327644636
 30
0.0
 11
-690.7506676165209
 21
30.80631327644636
 31
0.0
  0
LINE
  5
307
  8
GR1_01
  6
DIVIDE
 62
     6
 10
-710.7506676165209
 20
44.80631327644636
 30
0.0
 11
-710.7506676165209
 21
30.80631327644636
 31
0.0
  0
LINE
  5
308
  8
GR1_01
  6
DIVIDE
 62
     6
 10
-690.7506676165209
 20
30.80631327644636
 30
0.0
 11
-710.7506676165209
 21
30.80631327644636
 31
0.0
  0
LINE
  5
309
  8
GR1_01
  6
CONTINUOUS
 62
     3
 10
-711.8136777578545
 20
0.8063132764464171
 30
0.0
 11
-711.8136777578545
 21
-14.19368672355358
 31
0.0
  0
LINE
  5
30A
  8
GR1_01
  6
CONTINUOUS
 62
     3
 10
-685.8136777578545
 20
0.8063132764464171
 30
0.0
 11
-685.8136777578545
 21
-14.19368672355358
 31
0.0
  0
LINE
  5
30B
  8
GR1_01
  6
CONTINUOUS
 62
     3
 10
-711.8136777578545
 20
-9.193686723553583
 30
0.0
 11
-685.8136777578545
 21
-9.193686723553583
 31
0.0
  0
LINE
  5
30C
  8
9
  6
CONTINUOUS
 62
     3
 10
-699.0851811082408
 20
75.80631327644636
 30
0.0
 11
-683.0661697640185
 21
75.80631327644642
 31
0.0
  0
LINE
  5
30D
  8
8
  6
CONTINUOUS
 62
     3
 10
-696.4605212024632
 20
45.80631327644642
 30
0.0
 11
-623.0661697640185
 21
45.80631327644642
 31
0.0
  0
LINE
  5
30E
  8
GR1_15
  6
CONTINUOUS
 62
     3
 10
-698.5464503690569
 20
0.806313276446474
 30
0.0
 11
-719.0661697640185
 21
0.8063132764465308
 31
0.0
  0
LINE
  5
30F
  8
7
  6
CONTINUOUS
 62
     3
 10
-698.4589617055309
 20
-0.1936867235535829
 30
0.0
 11
-706.8136777578545
 21
-0.1936867235535829
 31
0.0
  0
LINE
  5
310
  8
GR1_01
  6
CONTINUOUS
 62
     3
 10
-744.4224985140186
 20
105.8063132764463
 30
0.0
 11
-754.0524803811733
 21
-4.264883139780466
 31
0.0
  0
LINE
  5
311
  8
GR1_01
  6
CONTINUOUS
 62
     3
 10
-736.6266949019913
 20
126.0704768299563
 30
0.0
 11
-748.0753121926228
 21
-4.787817596266393
 31
0.0
  0
LINE
  5
312
  8
GR1_01
  6
CONTINUOUS
 62
     3
 10
-754.0524803811733
 20
-4.264883139780466
 30
0.0
 11
-748.0753121926228
 21
-4.787817596266393
 31
0.0
  0
LINE
  5
313
  8
GR1_01
  6
CONTINUOUS
 62
     3
 10
-746.4224985140186
 20
105.8063132764463
 30
0.0
 11
-744.4224985140186
 21
105.8063132764463
 31
0.0
  0
LINE
  5
314
  8
7
  6
CONTINUOUS
 62
     3
 10
-759.3186617701824
 20
-9.193686723553583
 30
0.0
 11
-739.3186617701824
 21
-9.193686723553583
 31
0.0
  0
LINE
  5
315
  8
7
  6
CONTINUOUS
 62
     3
 10
-759.3186617701824
 20
-0.1936867235535829
 30
0.0
 11
-753.696296847766
 21
-0.1936867235535829
 31
0.0
  0
LINE
  5
316
  8
GR1_01
  6
CONTINUOUS
 62
     3
 10
-759.3186617701824
 20
-0.1936867235535829
 30
0.0
 11
-759.3186617701824
 21
-14.19368672355358
 31
0.0
  0
LINE
  5
317
  8
GR1_01
  6
CONTINUOUS
 62
     3
 10
-739.3186617701824
 20
-0.1936867235535829
 30
0.0
 11
-739.3186617701824
 21
-14.19368672355358
 31
0.0
  0
LINE
  5
318
  8
7
  6
DIVIDE
 62
     6
 10
-755.381671911516
 20
35.80631327644636
 30
0.0
 11
-735.381671911516
 21
35.80631327644636
 31
0.0
  0
LINE
  5
319
  8
7
  6
DIVIDE
 62
     6
 10
-755.381671911516
 20
44.80631327644636
 30
0.0
 11
-735.381671911516
 21
44.80631327644636
 31
0.0
  0
LINE
  5
31A
  8
GR1_01
  6
DIVIDE
 62
     6
 10
-755.381671911516
 20
44.80631327644636
 30
0.0
 11
-755.381671911516
 21
30.80631327644636
 31
0.0
  0
LINE
  5
31B
  8
GR1_01
  6
DIVIDE
 62
     6
 10
-735.381671911516
 20
44.80631327644636
 30
0.0
 11
-735.381671911516
 21
30.80631327644636
 31
0.0
  0
LINE
  5
31C
  8
GR1_01
  6
DIVIDE
 62
     6
 10
-755.381671911516
 20
30.80631327644636
 30
0.0
 11
-735.381671911516
 21
30.80631327644636
 31
0.0
  0
LINE
  5
31D
  8
GR1_01
  6
CONTINUOUS
 62
     3
 10
-734.3186617701824
 20
0.8063132764464171
 30
0.0
 11
-734.3186617701824
 21
-14.19368672355358
 31
0.0
  0
LINE
  5
31E
  8
GR1_01
  6
CONTINUOUS
 62
     3
 10
-760.3186617701824
 20
0.8063132764464171
 30
0.0
 11
-760.3186617701824
 21
-14.19368672355358
 31
0.0
  0
LINE
  5
31F
  8
GR1_01
  6
CONTINUOUS
 62
     3
 10
-734.3186617701824
 20
-9.193686723553583
 30
0.0
 11
-760.3186617701824
 21
-9.193686723553583
 31
0.0
  0
LINE
  5
320
  8
7
  6
CONTINUOUS
 62
     3
 10
-747.673377822506
 20
-0.1936867235535829
 30
0.0
 11
-739.3186617701824
 21
-0.1936867235535829
 31
0.0
  0
INSERT
  5
324
  8
99
  6
CONTINUOUS
 62
     3
  2
BLKF023
 10
0.0
 20
0.0
 30
0.0
  0
INSERT
  5
347
  8
99
  6
CONTINUOUS
 62
     3
  2
BLKF024
 10
0.0
 20
0.0
 30
0.0
  0
LINE
  5
361
  8
8
  6
CONTINUOUS
 62
     3
 10
-743.6488993003137
 20
45.80631327644642
 30
0.0
 11
-727.0661697640184
 21
45.80631327644642
 31
0.0
  0
LINE
  5
362
  8
GR1_15
  6
CONTINUOUS
 62
     3
 10
-753.60880818424
 20
0.806313276446474
 30
0.0
 11
-783.0661697640185
 21
0.8063132764464171
 31
0.0
  0
LINE
  5
363
  8
9
  6
CONTINUOUS
 62
     3
 10
-741.0242393945363
 20
75.80631327644642
 30
0.0
 11
-727.0661697640185
 21
75.80631327644642
 31
0.0
  0
INSERT
  5
367
  8
GR1_01
  6
CONTINUOUS
 62
     3
  2
BLKF025
 10
0.0
 20
0.0
 30
0.0
  0
INSERT
  5
37B
  8
GR1_01
  6
CONTINUOUS
 62
     3
  2
BLKF026
 10
0.0
 20
0.0
 30
0.0
  0
LINE
  5
38F
  8
GR1_01
  6
DASHDOT
 62
     3
 10
-723.0661697640185
 20
488.94844270127
 30
0.0
 11
-723.0661697640185
 21
238.94844270127
 31
0.0
  0
LINE
  5
390
  8
GR1_01
  6
DASHDOT
 62
     3
 10
-1002.380308622078
 20
488.94844270127
 30
0.0
 11
-1002.380308622078
 21
238.94844270127
 31
0.0
  0
LINE
  5
391
  8
GR1_01
  6
DASHED
 62
     4
 10
-683.0661697640185
 20
341.4484427012702
 30
0.0
 11
-623.0661697640185
 21
341.4484427012702
 31
0.0
  0
LINE
  5
392
  8
GR1_01
  6
DASHED
 62
     4
 10
-683.0661697640185
 20
306.4484427012702
 30
0.0
 11
-623.0661697640185
 21
306.4484427012702
 31
0.0
  0
LINE
  5
393
  8
GR1_01
  6
CONTINUOUS
 62
     3
 10
-700.2513041567422
 20
328.9484427012702
 30
0.0
 11
-683.0661697640185
 21
328.9484427012702
 31
0.0
  0
LINE
  5
394
  8
GR1_01
  6
CONTINUOUS
 62
     3
 10
-700.2513041567422
 20
318.9484427012702
 30
0.0
 11
-683.0661697640185
 21
318.9484427012702
 31
0.0
  0
INSERT
  5
398
  8
7
  6
CONTINUOUS
 62
     3
  2
BLKF028
 10
0.0
 20
0.0
 30
0.0
  0
INSERT
  5
3A7
  8
7
  6
CONTINUOUS
 62
     3
  2
BLKF029
 10
0.0
 20
0.0
 30
0.0
  0
INSERT
  5
3B9
  8
GR1_01
  6
CONTINUOUS
 62
     3
  2
BLKF030
 10
0.0
 20
0.0
 30
0.0
  0
LINE
  5
3CA
  8
GR1_01
  6
DASHED
 62
     4
 10
-763.0661697640185
 20
341.4484427012702
 30
0.0
 11
-823.0661697640185
 21
341.4484427012702
 31
0.0
  0
LINE
  5
3CB
  8
GR1_01
  6
DASHED
 62
     4
 10
-763.0661697640185
 20
306.4484427012702
 30
0.0
 11
-823.0661697640185
 21
306.4484427012702
 31
0.0
  0
LINE
  5
3CC
  8
GR1_01
  6
CONTINUOUS
 62
     3
 10
-745.8810353712947
 20
328.9484427012702
 30
0.0
 11
-763.0661697640185
 21
328.9484427012702
 31
0.0
  0
LINE
  5
3CD
  8
GR1_01
  6
CONTINUOUS
 62
     3
 10
-745.8810353712947
 20
318.9484427012702
 30
0.0
 11
-763.0661697640185
 21
318.9484427012702
 31
0.0
  0
INSERT
  5
3D1
  8
GR1_01
  6
CONTINUOUS
 62
     3
  2
BLKF031
 10
0.0
 20
0.0
 30
0.0
  0
LINE
  5
3E5
  8
GR1_01
  6
DASHDOT
 62
     3
 10
-848.0661697640185
 20
363.9484427012701
 30
0.0
 11
-598.0661697640184
 21
363.9484427012701
 31
0.0
  0
LINE
  5
3E6
  8
GR1_01
  6
DASHDOT
 62
     3
 10
-877.3803086220782
 20
363.9484427012701
 30
0.0
 11
-1127.380308622078
 21
363.9484427012701
 31
0.0
  0
INSERT
  5
3EB
  8
GR1_06
  6
CONTINUOUS
 62
     7
  2
BLKF033
 10
0.0
 20
0.0
 30
0.0
  0
INSERT
  5
400
  8
GR1_06
  6
CONTINUOUS
 62
     7
  2
BLKF035
 10
0.0
 20
0.0
 30
0.0
  0
INSERT
  5
415
  8
GR1_06
  6
CONTINUOUS
 62
     7
  2
BLKF037
 10
0.0
 20
0.0
 30
0.0
  0
INSERT
  5
422
  8
GR1_06
  6
CONTINUOUS
 62
     7
  2
BLKF038
 10
0.0
 20
0.0
 30
0.0
  0
LINE
  5
42C
  8
8
  6
CONTINUOUS
 62
     3
 10
-437.7914157727279
 20
45.8063132764463
 30
0.0
 11
-367.7914157727278
 21
45.80631327644642
 31
0.0
  0
LINE
  5
42D
  8
GR1_15
  6
CONTINUOUS
 62
     3
 10
-445.7914157727276
 20
0.8063132764465308
 30
0.0
 11
-501.7914157727278
 21
0.8063132764464171
 31
0.0
  0
LINE
  5
42E
  8
9
  6
CONTINUOUS
 62
     3
 10
-437.7914157727278
 20
75.80631327644642
 30
0.0
 11
-401.7914157727278
 21
75.80631327644642
 31
0.0
  0
LINE
  5
42F
  8
GR1_15
  6
CONTINUOUS
 62
     3
 10
-727.0661697640185
 20
0.8063132764465308
 30
0.0
 11
-747.5858891589801
 21
0.806313276446474
 31
0.0
  0
LINE
  5
430
  8
8
  6
CONTINUOUS
 62
     3
 10
-719.0661697640185
 20
45.80631327644642
 30
0.0
 11
-702.4834402277232
 21
45.80631327644642
 31
0.0
  0
LINE
  5
431
  8
9
  6
CONTINUOUS
 62
     3
 10
-719.0661697640186
 20
75.80631327644642
 30
0.0
 11
-705.1081001335009
 21
75.80631327644642
 31
0.0
  0
INSERT
  5
435
  8
GR1_01
  6
DASHED
 62
     4
  2
BLKF039
 10
0.0
 20
0.0
 30
0.0
  0
INSERT
  5
454
  8
GR1_01
  6
DASHED
 62
     4
  2
BLKF040
 10
0.0
 20
0.0
 30
0.0
  0
LINE
  5
470
  8
12
  6
CONTINUOUS
 62
     3
 10
-355.7914157727278
 20
-46.1936867235537
 30
0.0
 11
-355.7914157727278
 21
63.8063132764463
 31
0.0
  0
LINE
  5
471
  8
12
  6
CONTINUOUS
 62
     3
 10
-367.7914157727278
 20
-46.1936867235537
 30
0.0
 11
-367.7914157727278
 21
63.8063132764463
 31
0.0
  0
LINE
  5
472
  8
12
  6
CONTINUOUS
 62
     3
 10
-352.7914157727278
 20
-58.19368672355358
 30
0.0
 11
-370.7914157727278
 21
-58.1936867235537
 31
0.0
  0
LINE
  5
473
  8
12
  6
CONTINUOUS
 62
     3
 10
-352.7914157727278
 20
-58.1936867235537
 30
0.0
 11
-352.7914157727278
 21
-46.1936867235537
 31
0.0
  0
LINE
  5
474
  8
12
  6
CONTINUOUS
 62
     3
 10
-370.7914157727278
 20
-58.1936867235537
 30
0.0
 11
-370.7914157727278
 21
-46.1936867235537
 31
0.0
  0
LINE
  5
475
  8
12
  6
CONTINUOUS
 62
     3
 10
-370.7914157727278
 20
-46.1936867235537
 30
0.0
 11
-352.7914157727278
 21
-46.1936867235537
 31
0.0
  0
LINE
  5
476
  8
12
  6
CONTINUOUS
 62
     3
 10
-367.7914157727278
 20
63.8063132764463
 30
0.0
 11
-355.7914157727278
 21
63.8063132764463
 31
0.0
  0
LINE
  5
477
  8
GR1_10
  6
CONTINUOUS
 62
     3
 10
-352.7914157727278
 20
187.8063132764463
 30
0.0
 11
-370.7914157727278
 21
187.8063132764463
 31
0.0
  0
LINE
  5
478
  8
GR1_10
  6
CONTINUOUS
 62
     3
 10
-370.7914157727278
 20
199.8063132764463
 30
0.0
 11
-370.7914157727278
 21
187.8063132764463
 31
0.0
  0
LINE
  5
479
  8
GR1_10
  6
CONTINUOUS
 62
     3
 10
-352.7914157727278
 20
199.8063132764463
 30
0.0
 11
-352.7914157727278
 21
187.8063132764463
 31
0.0
  0
LINE
  5
47A
  8
GR1_10
  6
CONTINUOUS
 62
     3
 10
-367.7914157727278
 20
187.8063132764463
 30
0.0
 11
-367.7914157727278
 21
157.8063132764463
 31
0.0
  0
LINE
  5
47B
  8
GR1_10
  6
CONTINUOUS
 62
     3
 10
-355.7914157727278
 20
187.8063132764463
 30
0.0
 11
-355.7914157727278
 21
157.8063132764463
 31
0.0
  0
LINE
  5
47C
  8
GR1_10
  6
CONTINUOUS
 62
     3
 10
-370.7914157727278
 20
199.8063132764463
 30
0.0
 11
-352.7914157727278
 21
199.8063132764464
 31
0.0
  0
LINE
  5
47D
  8
GR1_10
  6
CONTINUOUS
 62
     3
 10
-355.7914157727278
 20
157.8063132764463
 30
0.0
 11
-367.7914157727278
 21
157.8063132764463
 31
0.0
  0
LINE
  5
47E
  8
GR1_01
  6
DASHDOT
 62
     7
 10
-361.7914157727278
 20
199.8063132764464
 30
0.0
 11
-361.7914157727278
 21
157.8063132764463
 31
0.0
  0
LINE
  5
47F
  8
GR1_01
  6
DASHDOT
 62
     7
 10
-361.7914157727278
 20
63.8063132764463
 30
0.0
 11
-361.7914157727278
 21
-58.1936867235537
 31
0.0
  0
LINE
  5
480
  8
8
  6
CONTINUOUS
 62
     3
 10
-355.7914157727278
 20
45.80631327644642
 30
0.0
 11
-341.7914157727278
 21
45.80631327644642
 31
0.0
  0
LINE
  5
481
  8
250
  6
CONTINUOUS
 62
     3
 10
-367.7914157727278
 20
175.8063132764464
 30
0.0
 11
-541.7914157727278
 21
175.8063132764464
 31
0.0
  0
INSERT
  5
486
  8
GR1_05
  6
DASHED
 62
     4
  2
BLKF041
 10
0.0
 20
0.0
 30
0.0
  0
INSERT
  5
493
  8
GR1_05
  6
DASHED
 62
     4
  2
BLKF042
 10
0.0
 20
0.0
 30
0.0
  0
INSERT
  5
4A0
  8
GR1_05
  6
DASHED
 62
     4
  2
BLKF043
 10
0.0
 20
0.0
 30
0.0
  0
INSERT
  5
4AD
  8
GR1_05
  6
DASHED
 62
     4
  2
BLKF044
 10
0.0
 20
0.0
 30
0.0
  0
INSERT
  5
4BA
  8
GR1_05
  6
DASHED
 62
     4
  2
BLKF045
 10
0.0
 20
0.0
 30
0.0
  0
INSERT
  5
4C7
  8
GR1_05
  6
DASHED
 62
     4
  2
BLKF046
 10
0.0
 20
0.0
 30
0.0
  0
INSERT
  5
4D1
  8
GR1_05
  6
DASHED
 62
     4
  2
BLKF047
 10
0.0
 20
0.0
 30
0.0
  0
INSERT
  5
4DB
  8
GR1_05
  6
CONTINUOUS
 62
     7
  2
BLKF048
 10
0.0
 20
0.0
 30
0.0
  0
INSERT
  5
4F3
  8
GR1_05
  6
CONTINUOUS
 62
     7
  2
BLKF049
 10
0.0
 20
0.0
 30
0.0
  0
LINE
  5
508
  8
GR1_01
  6
DASHDOT
 62
     7
 10
-400.6359689465413
 20
465.9484427012702
 30
0.0
 11
-530.6359689465413
 21
465.94844270127
 31
0.0
  0
LINE
  5
509
  8
8
  6
CONTINUOUS
 62
     3
 10
-460.6359689465413
 20
455.9484427012702
 30
0.0
 11
-460.6359689465413
 21
427.3047714529313
 31
0.0
  0
LINE
  5
50A
  8
250
  6
CONTINUOUS
 62
     3
 10
-460.6359689465413
 20
475.9484427012702
 30
0.0
 11
-460.6359689465413
 21
488.9484427012701
 31
0.0
  0
LINE
  5
50B
  8
10
  6
CONTINUOUS
 62
     3
 10
-340.6359689465413
 20
253.9484427012701
 30
0.0
 11
-344.6359689465413
 21
253.9484427012701
 31
0.0
  0
LINE
  5
50C
  8
10
  6
CONTINUOUS
 62
     3
 10
-340.6359689465413
 20
273.9484427012701
 30
0.0
 11
-344.6359689465413
 21
273.9484427012701
 31
0.0
  0
LINE
  5
50D
  8
10
  6
CONTINUOUS
 62
     3
 10
-344.6359689465413
 20
256.4484427012701
 30
0.0
 11
-460.6359689465413
 21
256.4484427012701
 31
0.0
  0
LINE
  5
50E
  8
10
  6
CONTINUOUS
 62
     3
 10
-344.6359689465413
 20
271.4484427012701
 30
0.0
 11
-460.6359689465413
 21
271.4484427012701
 31
0.0
  0
LINE
  5
50F
  8
10
  6
CONTINUOUS
 62
     3
 10
-344.6359689465413
 20
253.9484427012701
 30
0.0
 11
-344.6359689465413
 21
273.9484427012701
 31
0.0
  0
LINE
  5
510
  8
GR1_15
  6
CONTINUOUS
 62
     3
 10
-355.6359689465413
 20
256.4484427012701
 30
0.0
 11
-355.6359689465413
 21
238.9484427012701
 31
0.0
  0
LINE
  5
511
  8
8
  6
CONTINUOUS
 62
     3
 10
-400.6359689465413
 20
271.4484427012701
 30
0.0
 11
-400.6359689465413
 21
360.9636270112695
 31
0.0
  0
LINE
  5
512
  8
GR1_01
  6
DASHDOT
 62
     7
 10
-460.6359689465413
 20
263.9484427012701
 30
0.0
 11
-327.6259689465413
 21
263.94844270127
 31
0.0
  0
LINE
  5
513
  8
9
  6
CONTINUOUS
 62
     3
 10
-460.6359689465413
 20
380.5921139496089
 30
0.0
 11
-460.6359689465413
 21
347.3047714529313
 31
0.0
  0
LINE
  5
514
  8
8
  6
CONTINUOUS
 62
     3
 10
-460.6359689465413
 20
380.5921139496089
 30
0.0
 11
-460.6359689465413
 21
347.3047714529313
 31
0.0
  0
LINE
  5
515
  8
250
  6
CONTINUOUS
 62
     3
 10
-460.6359689465413
 20
427.3047714529313
 30
0.0
 11
-460.6359689465413
 21
455.9484427012702
 31
0.0
  0
LINE
  5
516
  8
9
  6
CONTINUOUS
 62
     3
 10
-460.6359689465413
 20
300.5921139496089
 30
0.0
 11
-460.6359689465413
 21
283.9484427012701
 31
0.0
  0
LINE
  5
517
  8
250
  6
CONTINUOUS
 62
     3
 10
-460.6359689465413
 20
347.3047714529313
 30
0.0
 11
-460.6359689465413
 21
380.5921139496089
 31
0.0
  0
LINE
  5
518
  8
8
  6
CONTINUOUS
 62
     3
 10
-460.6359689465413
 20
300.5921139496089
 30
0.0
 11
-460.6359689465413
 21
238.9484427012701
 31
0.0
  0
INSERT
  5
51C
  8
GR1_05
  6
DASHED
 62
     4
  2
BLKF050
 10
0.0
 20
0.0
 30
0.0
  0
INSERT
  5
526
  8
GR1_05
  6
DASHED
 62
     4
  2
BLKF051
 10
0.0
 20
0.0
 30
0.0
  0
INSERT
  5
530
  8
GR1_05
  6
DASHED
 62
     4
  2
BLKF052
 10
0.0
 20
0.0
 30
0.0
  0
INSERT
  5
53A
  8
GR1_05
  6
DASHED
 62
     4
  2
BLKF053
 10
0.0
 20
0.0
 30
0.0
  0
LINE
  5
541
  8
GR1_01
  6
DASHDOT
 62
     7
 10
-391.7914157727278
 20
-0.5936867235535601
 30
0.0
 11
-391.7914157727276
 21
-33.59368672355367
 31
0.0
  0
LINE
  5
542
  8
7
  6
CONTINUOUS
 62
     3
 10
-395.7914157727276
 20
-14.19368672355347
 30
0.0
 11
-501.7914157727278
 21
-14.19368672355358
 31
0.0
  0
LINE
  5
543
  8
GR1_15
  6
CONTINUOUS
 62
     3
 10
-387.7914157727276
 20
-14.19368672355347
 30
0.0
 11
-381.7914157727278
 21
-14.19368672355358
 31
0.0
  0
INSERT
  5
547
  8
GR1_01
  6
CONTINUOUS
 62
     3
  2
BLKF054
 10
0.0
 20
0.0
 30
0.0
  0
INSERT
  5
54E
  8
GR1_01
  6
CONTINUOUS
 62
     3
  2
BLKF055
 10
0.0
 20
0.0
 30
0.0
  0
INSERT
  5
555
  8
GR1_05
  6
DASHED
 62
     4
  2
BLKF056
 10
0.0
 20
0.0
 30
0.0
  0
INSERT
  5
55F
  8
GR1_01
  6
CONTINUOUS
 62
     3
  2
BLKF057
 10
0.0
 20
0.0
 30
0.0
  0
LINE
  5
563
  8
12
  6
CONTINUOUS
 62
     3
 10
-401.2359689465413
 20
440.9596062693565
 30
0.0
 11
-401.2359689465413
 21
427.9596062693565
 31
0.0
  0
LINE
  5
564
  8
12
  6
CONTINUOUS
 62
     3
 10
-409.2359689465413
 20
430.4596062693565
 30
0.0
 11
-439.2359689465413
 21
430.4596062693565
 31
0.0
  0
LINE
  5
565
  8
12
  6
CONTINUOUS
 62
     3
 10
-409.2359689465413
 20
438.4596062693565
 30
0.0
 11
-439.2359689465413
 21
438.4596062693565
 31
0.0
  0
LINE
  5
566
  8
12
  6
CONTINUOUS
 62
     3
 10
-409.2359689465413
 20
427.9596062693565
 30
0.0
 11
-409.2359689465413
 21
440.9596062693565
 31
0.0
  0
LINE
  5
567
  8
12
  6
CONTINUOUS
 62
     3
 10
-401.2359689465413
 20
440.9596062693565
 30
0.0
 11
-409.2359689465413
 21
440.9596062693565
 31
0.0
  0
LINE
  5
568
  8
12
  6
CONTINUOUS
 62
     3
 10
-401.2359689465413
 20
427.9596062693565
 30
0.0
 11
-409.2359689465413
 21
427.9596062693565
 31
0.0
  0
LINE
  5
569
  8
12
  6
CONTINUOUS
 62
     3
 10
-439.2359689465413
 20
430.4596062693565
 30
0.0
 11
-439.2359689465413
 21
438.4596062693565
 31
0.0
  0
LINE
  5
56A
  8
GR1_01
  6
DASHDOT
 62
     7
 10
-439.2359689465413
 20
434.4596062693565
 30
0.0
 11
-401.2359689465412
 21
434.4596062693566
 31
0.0
  0
LINE
  5
56B
  8
9
  6
CONTINUOUS
 62
     3
 10
-430.6359689465413
 20
438.4596062693566
 30
0.0
 11
-430.6359689465413
 21
443.9484427012701
 31
0.0
  0
LINE
  5
56C
  8
200
  6
CONTINUOUS
 62
     3
 10
-555.6359689465413
 20
313.9636270112701
 30
0.0
 11
-555.6359689465413
 21
238.9484427012701
 31
0.0
  0
LINE
  5
56D
  8
250
  6
CONTINUOUS
 62
     3
 10
-530.6359689465413
 20
355.9636270112701
 30
0.0
 11
-530.6359689465413
 21
347.9636270112701
 31
0.0
  0
LINE
  5
56E
  8
GR1_01
  6
DASHDOT
 62
     7
 10
-543.6359689465413
 20
321.4636270112701
 30
0.0
 11
-565.6359689465413
 21
321.4636270112701
 31
0.0
  0
LINE
  5
56F
  8
GR1_01
  6
DASHDOT
 62
     7
 10
-524.1359689465413
 20
344.9636270112701
 30
0.0
 11
-545.6359689465413
 21
344.9636270112701
 31
0.0
  0
LINE
  5
570
  8
GR1_01
  6
DASHDOT
 62
     3
 10
-555.6359689465413
 20
363.9636270112701
 30
0.0
 11
-295.6359689465413
 21
363.9636270112701
 31
0.0
  0
LINE
  5
571
  8
GR1_02
  6
CONTINUOUS
 62
     3
 10
-555.6359689465413
 20
413.9636270112701
 30
0.0
 11
-550.6359689465413
 21
413.9636270112701
 31
0.0
  0
LINE
  5
572
  8
GR1_02
  6
CONTINUOUS
 62
     3
 10
-530.6359689465413
 20
385.42212701127
 30
0.0
 11
-530.6359689465413
 21
380.5051270112701
 31
0.0
  0
LINE
  5
573
  8
GR1_12
  6
CONTINUOUS
 62
     3
 10
-530.6359689465413
 20
388.9636270112701
 30
0.0
 11
-530.6359689465413
 21
386.2136270112701
 31
0.0
  0
LINE
  5
574
  8
GR1_12
  6
CONTINUOUS
 62
     3
 10
-545.6359689465413
 20
388.9636270112701
 30
0.0
 11
-530.6359689465413
 21
388.9636270112701
 31
0.0
  0
LINE
  5
575
  8
GR1_12
  6
CONTINUOUS
 62
     3
 10
-539.1359689465413
 20
388.4636270112701
 30
0.0
 11
-539.1359689465413
 21
385.9636270112701
 31
0.0
  0
LINE
  5
576
  8
GR1_12
  6
CONTINUOUS
 62
     3
 10
-539.1359689465413
 20
377.4636270112701
 30
0.0
 11
-539.1359689465413
 21
379.9636270112701
 31
0.0
  0
LINE
  5
577
  8
GR1_12
  6
CONTINUOUS
 62
     3
 10
-539.1359689465413
 20
388.4636270112701
 30
0.0
 11
-545.6359689465413
 21
388.4636270112701
 31
0.0
  0
LINE
  5
578
  8
GR1_12
  6
CONTINUOUS
 62
     3
 10
-545.6359689465413
 20
377.4636270112701
 30
0.0
 11
-539.1359689465413
 21
377.4636270112701
 31
0.0
  0
LINE
  5
579
  8
GR1_12
  6
CONTINUOUS
 62
     3
 10
-530.6359689465413
 20
386.2136270112701
 30
0.0
 11
-539.1359689465413
 21
386.2136270112701
 31
0.0
  0
LINE
  5
57A
  8
GR1_12
  6
CONTINUOUS
 62
     3
 10
-539.1359689465413
 20
379.7136270112701
 30
0.0
 11
-530.6359689465413
 21
379.7136270112701
 31
0.0
  0
LINE
  5
57B
  8
GR1_12
  6
CONTINUOUS
 62
     3
 10
-550.6359689465413
 20
413.9636270112701
 30
0.0
 11
-550.6359689465413
 21
409.7136270112701
 31
0.0
  0
LINE
  5
57C
  8
GR1_12
  6
CONTINUOUS
 62
     3
 10
-563.9039181665413
 20
413.9636270112701
 30
0.0
 11
-550.6359689465413
 21
413.9636270112701
 31
0.0
  0
LINE
  5
57D
  8
GR1_12
  6
CONTINUOUS
 62
     3
 10
-565.6359689465413
 20
412.9636270112701
 30
0.0
 11
-563.9039181665413
 21
413.9636270112701
 31
0.0
  0
LINE
  5
57E
  8
GR1_12
  6
CONTINUOUS
 62
     3
 10
-550.6359689465413
 20
409.7136270112701
 30
0.0
 11
-558.6359689465413
 21
409.7136270112701
 31
0.0
  0
LINE
  5
57F
  8
GR1_12
  6
CONTINUOUS
 62
     3
 10
-558.6359689465413
 20
403.2136270112701
 30
0.0
 11
-550.6359689465413
 21
403.2136270112701
 31
0.0
  0
LINE
  5
580
  8
GR1_12
  6
CONTINUOUS
 62
     3
 10
-558.6359689465413
 20
411.9636270112701
 30
0.0
 11
-558.6359689465413
 21
409.4636270112701
 31
0.0
  0
LINE
  5
581
  8
GR1_12
  6
CONTINUOUS
 62
     3
 10
-558.6359689465413
 20
400.9636270112701
 30
0.0
 11
-558.6359689465413
 21
403.4636270112701
 31
0.0
  0
LINE
  5
582
  8
GR1_12
  6
CONTINUOUS
 62
     3
 10
-558.6359689465413
 20
411.9636270112701
 30
0.0
 11
-565.6359689465413
 21
411.9636270112701
 31
0.0
  0
LINE
  5
583
  8
GR1_12
  6
CONTINUOUS
 62
     3
 10
-565.6359689465413
 20
400.9636270112701
 30
0.0
 11
-558.6359689465413
 21
400.9636270112701
 31
0.0
  0
LINE
  5
584
  8
GR1_12
  6
CONTINUOUS
 62
     3
 10
-564.6359689465413
 20
401.4636270112701
 30
0.0
 11
-564.6359689465413
 21
411.4636270112701
 31
0.0
  0
LINE
  5
585
  8
GR1_12
  6
CONTINUOUS
 62
     3
 10
-558.6359689465413
 20
401.4636270112701
 30
0.0
 11
-564.6359689465413
 21
401.4636270112701
 31
0.0
  0
LINE
  5
586
  8
GR1_12
  6
CONTINUOUS
 62
     3
 10
-564.6359689465413
 20
411.4636270112701
 30
0.0
 11
-558.6359689465413
 21
411.4636270112701
 31
0.0
  0
LINE
  5
587
  8
GR1_12
  6
CONTINUOUS
 62
     3
 10
-543.6359689465413
 20
409.4636270112701
 30
0.0
 11
-543.6359689465413
 21
403.4636270112701
 31
0.0
  0
LINE
  5
588
  8
GR1_12
  6
CONTINUOUS
 62
     3
 10
-543.6359689465413
 20
403.4636270112701
 30
0.0
 11
-558.6359689465413
 21
403.4636270112701
 31
0.0
  0
LINE
  5
589
  8
GR1_12
  6
CONTINUOUS
 62
     3
 10
-558.6359689465413
 20
409.4636270112701
 30
0.0
 11
-543.6359689465413
 21
409.4636270112701
 31
0.0
  0
LINE
  5
58A
  8
GR1_12
  6
CONTINUOUS
 62
     3
 10
-545.1359689465413
 20
377.9636270112701
 30
0.0
 11
-545.1359689465413
 21
387.9636270112701
 31
0.0
  0
LINE
  5
58B
  8
GR1_12
  6
CONTINUOUS
 62
     3
 10
-539.1359689465413
 20
377.9636270112701
 30
0.0
 11
-545.1359689465413
 21
377.9636270112701
 31
0.0
  0
LINE
  5
58C
  8
GR1_12
  6
CONTINUOUS
 62
     3
 10
-545.1359689465413
 20
387.9636270112701
 30
0.0
 11
-539.1359689465413
 21
387.9636270112701
 31
0.0
  0
LINE
  5
58D
  8
GR1_12
  6
CONTINUOUS
 62
     3
 10
-524.1359689465413
 20
385.9636270112701
 30
0.0
 11
-524.1359689465413
 21
379.9636270112701
 31
0.0
  0
LINE
  5
58E
  8
GR1_12
  6
CONTINUOUS
 62
     3
 10
-524.1359689465413
 20
379.9636270112701
 30
0.0
 11
-539.1359689465413
 21
379.9636270112701
 31
0.0
  0
LINE
  5
58F
  8
GR1_12
  6
CONTINUOUS
 62
     3
 10
-539.1359689465413
 20
385.9636270112701
 30
0.0
 11
-524.1359689465413
 21
385.9636270112701
 31
0.0
  0
LINE
  5
590
  8
GR1_01
  6
DASHDOT
 62
     7
 10
-543.6359689465413
 20
406.4636270112701
 30
0.0
 11
-565.6359689465413
 21
406.4636270112701
 31
0.0
  0
LINE
  5
591
  8
GR1_01
  6
DASHDOT
 62
     7
 10
-524.1359689465413
 20
382.9636270112701
 30
0.0
 11
-545.6359689465413
 21
382.9636270112701
 31
0.0
  0
LINE
  5
592
  8
GR1_02
  6
CONTINUOUS
 62
     3
 10
-550.6359689465413
 20
409.4636270112701
 30
0.0
 11
-550.6359689465413
 21
413.9636270112701
 31
0.0
  0
LINE
  5
593
  8
GR1_02
  6
CONTINUOUS
 62
     3
 10
-550.6359689465413
 20
324.4636270112701
 30
0.0
 11
-550.6359689465413
 21
403.4636270112701
 31
0.0
  0
LINE
  5
594
  8
250
  6
CONTINUOUS
 62
     3
 10
-530.6359689465413
 20
341.9636270112701
 30
0.0
 11
-530.6359689465413
 21
238.9484427012701
 31
0.0
  0
LINE
  5
595
  8
250
  6
CONTINUOUS
 62
     3
 10
-530.6359689465413
 20
379.9636270112701
 30
0.0
 11
-530.6359689465413
 21
371.9636270112701
 31
0.0
  0
LINE
  5
596
  8
GR1_01
  6
CONTINUOUS
 62
     3
 10
-457.6359689465413
 20
355.3651400787912
 30
0.0
 11
-457.6359689465413
 21
372.562113943749
 31
0.0
  0
LINE
  5
597
  8
GR1_01
  6
CONTINUOUS
 62
     3
 10
-463.6359689465413
 20
355.3651400787912
 30
0.0
 11
-463.6359689465413
 21
372.562113943749
 31
0.0
  0
ARC
  5
598
  8
GR1_01
  6
CONTINUOUS
 62
     3
 10
-460.6359689465413
 20
355.3651400787912
 30
0.0
 40
3.0
 50
180.0
 51
0.0
  0
ARC
  5
599
  8
GR1_01
  6
CONTINUOUS
 62
     3
 10
-460.6359689465413
 20
372.562113943749
 30
0.0
 40
3.0
 50
0.0
 51
180.0
  0
LINE
  5
59A
  8
GR1_01
  6
CONTINUOUS
 62
     3
 10
-461.6359689465413
 20
375.3905410684952
 30
0.0
 11
-461.6359689465413
 21
378.5747901811596
 31
0.0
  0
LINE
  5
59B
  8
GR1_01
  6
CONTINUOUS
 62
     3
 10
-461.6359689465413
 20
352.536712954045
 30
0.0
 11
-461.6359689465413
 21
349.3524638413805
 31
0.0
  0
CIRCLE
  5
59C
  8
GR1_01
  6
DASHED
 62
     4
 10
-683.0661697640185
 20
463.9484427012701
 30
0.0
 40
13.0
  0
LINE
  5
59D
  8
GR1_01
  6
DASHDOT
 62
     7
 10
-340.6359689465413
 20
250.93844270127
 30
0.0
 11
-340.6359689465413
 21
276.95844270127
 31
0.0
  0
LINE
  5
59E
  8
GR1_01
  6
DIVIDE
 62
     6
 10
-355.6359689465413
 20
276.94844270127
 30
0.0
 11
-450.6359689465413
 21
276.94844270127
 31
0.0
  0
LINE
  5
59F
  8
GR1_01
  6
CONTINUOUS
 62
     3
 10
-400.6359689465413
 20
277.94844270127
 30
0.0
 11
-450.6359689465413
 21
277.94844270127
 31
0.0
  0
LINE
  5
5A0
  8
GR1_01
  6
DIVIDE
 62
     6
 10
-355.6359689465413
 20
250.9484427012702
 30
0.0
 11
-450.6359689465413
 21
250.9484427012702
 31
0.0
  0
LINE
  5
5A1
  8
GR1_01
  6
CONTINUOUS
 62
     3
 10
-400.6359689465413
 20
249.9484427012702
 30
0.0
 11
-450.6359689465413
 21
249.9484427012702
 31
0.0
  0
LINE
  5
5A2
  8
GR1_01
  6
CONTINUOUS
 62
     3
 10
-450.6359689465413
 20
277.94844270127
 30
0.0
 11
-450.6359689465413
 21
271.4484427012701
 31
0.0
  0
LINE
  5
5A3
  8
GR1_01
  6
DIVIDE
 62
     6
 10
-355.6359689465413
 20
276.94844270127
 30
0.0
 11
-450.6359689465413
 21
250.9484427012702
 31
0.0
  0
LINE
  5
5A4
  8
GR1_01
  6
DIVIDE
 62
     6
 10
-450.6359689465413
 20
276.94844270127
 30
0.0
 11
-355.6359689465413
 21
250.9484427012702
 31
0.0
  0
LINE
  5
5A5
  8
GR1_01
  6
CONTINUOUS
 62
     3
 10
-450.6359689465413
 20
256.4484427012701
 30
0.0
 11
-450.6359689465413
 21
249.9484427012702
 31
0.0
  0
CIRCLE
  5
5A6
  8
GR1_01
  6
DASHED
 62
     4
 10
-763.0661697640185
 20
463.9484427012701
 30
0.0
 40
13.0
  0
CIRCLE
  5
5A7
  8
GR1_01
  6
DASHED
 62
     4
 10
-683.0661697640185
 20
263.9484427012701
 30
0.0
 40
13.0
  0
CIRCLE
  5
5A8
  8
GR1_01
  6
DASHED
 62
     4
 10
-763.0661697640185
 20
263.9484427012701
 30
0.0
 40
13.0
  0
INSERT
  5
5AC
  8
GR1_06
  6
CONTINUOUS
 62
     7
  2
BLKF058
 10
0.0
 20
0.0
 30
0.0
  0
LINE
  5
5B6
  8
GR1_01
  6
CONTINUOUS
 62
     3
 10
-452.6359689465413
 20
360.963627011268
 30
0.0
 11
-452.6359689465413
 21
366.9636270112701
 31
0.0
  0
LINE
  5
5B7
  8
9
  6
CONTINUOUS
 62
     3
 10
-430.6359689465413
 20
366.9636270112701
 30
0.0
 11
-430.6359689465413
 21
430.4596062693566
 31
0.0
  0
LINE
  5
5B8
  8
8
  6
CONTINUOUS
 62
     3
 10
-400.6359689465413
 20
366.9636270112701
 30
0.0
 11
-400.6359689465413
 21
488.9484427012701
 31
0.0
  0
LINE
  5
5B9
  8
GR1_01
  6
DASHDOT
 62
     7
 10
-1082.380308622078
 20
289.9484427012701
 30
0.0
 11
-1082.380308622078
 21
307.9484427012701
 31
0.0
  0
LINE
  5
5BA
  8
GR1_01
  6
DASHDOT
 62
     7
 10
-1073.380308622078
 20
298.9484427012701
 30
0.0
 11
-1091.380308622078
 21
298.9484427012701
 31
0.0
  0
LINE
  5
5BB
  8
GR1_01
  6
DASHDOT
 62
     7
 10
-1082.380308622078
 20
419.9484427012701
 30
0.0
 11
-1082.380308622078
 21
437.9484427012701
 31
0.0
  0
LINE
  5
5BC
  8
GR1_01
  6
DASHDOT
 62
     7
 10
-1073.380308622078
 20
428.9484427012701
 30
0.0
 11
-1091.380308622078
 21
428.9484427012701
 31
0.0
  0
LINE
  5
5BD
  8
GR1_01
  6
DASHDOT
 62
     7
 10
-1079.380308622078
 20
246.4484427012701
 30
0.0
 11
-1079.380308622078
 21
281.4484427012701
 31
0.0
  0
LINE
  5
5BE
  8
GR1_01
  6
DASHDOT
 62
     7
 10
-1061.880308622078
 20
263.9484427012701
 30
0.0
 11
-1096.880308622078
 21
263.9484427012701
 31
0.0
  0
LINE
  5
5BF
  8
GR1_01
  6
DASHDOT
 62
     7
 10
-1079.380308622078
 20
450.9484427012701
 30
0.0
 11
-1079.380308622078
 21
480.9484427012701
 31
0.0
  0
LINE
  5
5C0
  8
GR1_01
  6
DASHDOT
 62
     7
 10
-1064.380308622078
 20
465.9484427012701
 30
0.0
 11
-1094.380308622078
 21
465.9484427012701
 31
0.0
  0
LINE
  5
5C1
  8
GR1_01
  6
DASHDOT
 62
     7
 10
-925.3803086220782
 20
244.4484427012701
 30
0.0
 11
-925.3803086220782
 21
279.4484427012701
 31
0.0
  0
LINE
  5
5C2
  8
GR1_01
  6
DASHDOT
 62
     7
 10
-907.8803086220782
 20
261.9484427012701
 30
0.0
 11
-942.8803086220782
 21
261.9484427012701
 31
0.0
  0
LINE
  5
5C3
  8
GR1_01
  6
DASHDOT
 62
     7
 10
-925.3803086220782
 20
448.4484427012701
 30
0.0
 11
-925.3803086220782
 21
483.4484427012701
 31
0.0
  0
LINE
  5
5C4
  8
GR1_01
  6
DASHDOT
 62
     7
 10
-907.8803086220782
 20
465.9484427012701
 30
0.0
 11
-942.8803086220782
 21
465.9484427012701
 31
0.0
  0
LINE
  5
5C5
  8
GR1_01
  6
DASHDOT
 62
     7
 10
-922.3803086220782
 20
289.9484427012701
 30
0.0
 11
-922.3803086220782
 21
307.9484427012701
 31
0.0
  0
LINE
  5
5C6
  8
GR1_01
  6
DASHDOT
 62
     7
 10
-913.3803086220782
 20
298.9484427012701
 30
0.0
 11
-931.3803086220782
 21
298.9484427012701
 31
0.0
  0
LINE
  5
5C7
  8
GR1_01
  6
DASHDOT
 62
     7
 10
-922.3803086220782
 20
419.9484427012701
 30
0.0
 11
-922.3803086220782
 21
437.9484427012701
 31
0.0
  0
LINE
  5
5C8
  8
GR1_01
  6
DASHDOT
 62
     7
 10
-913.3803086220782
 20
428.9484427012701
 30
0.0
 11
-931.3803086220782
 21
428.9484427012701
 31
0.0
  0
LINE
  5
5C9
  8
GR1_01
  6
DASHDOT
 62
     7
 10
-803.0661697640185
 20
274.9484427012701
 30
0.0
 11
-803.0661697640185
 21
292.9484427012701
 31
0.0
  0
LINE
  5
5CA
  8
GR1_01
  6
DASHDOT
 62
     7
 10
-794.0661697640185
 20
283.9484427012701
 30
0.0
 11
-812.0661697640185
 21
283.9484427012701
 31
0.0
  0
LINE
  5
5CB
  8
GR1_01
  6
DASHDOT
 62
     7
 10
-803.0661697640185
 20
434.9484427012701
 30
0.0
 11
-803.0661697640185
 21
452.9484427012701
 31
0.0
  0
LINE
  5
5CC
  8
GR1_01
  6
DASHDOT
 62
     7
 10
-794.0661697640185
 20
443.9484427012701
 30
0.0
 11
-812.0661697640185
 21
443.9484427012701
 31
0.0
  0
LINE
  5
5CD
  8
GR1_01
  6
DASHDOT
 62
     7
 10
-800.0661697640185
 20
249.4484427012701
 30
0.0
 11
-800.0661697640185
 21
274.4484427012701
 31
0.0
  0
LINE
  5
5CE
  8
GR1_01
  6
DASHDOT
 62
     7
 10
-787.5661697640185
 20
261.9484427012701
 30
0.0
 11
-812.5661697640185
 21
261.9484427012701
 31
0.0
  0
LINE
  5
5CF
  8
GR1_01
  6
DASHDOT
 62
     7
 10
-800.0661697640185
 20
453.4484427012701
 30
0.0
 11
-800.0661697640185
 21
478.4484427012701
 31
0.0
  0
LINE
  5
5D0
  8
GR1_01
  6
DASHDOT
 62
     7
 10
-787.5661697640185
 20
465.9484427012701
 30
0.0
 11
-812.5661697640185
 21
465.9484427012701
 31
0.0
  0
LINE
  5
5D1
  8
GR1_01
  6
DASHDOT
 62
     7
 10
-773.0661697640185
 20
242.4484427012701
 30
0.0
 11
-773.0661697640185
 21
255.4484427012701
 31
0.0
  0
LINE
  5
5D2
  8
GR1_01
  6
DASHDOT
 62
     7
 10
-766.5661697640185
 20
248.9484427012701
 30
0.0
 11
-779.5661697640185
 21
248.9484427012701
 31
0.0
  0
LINE
  5
5D3
  8
GR1_01
  6
DASHDOT
 62
     7
 10
-773.0661697640185
 20
472.4484427012701
 30
0.0
 11
-773.0661697640185
 21
485.4484427012701
 31
0.0
  0
LINE
  5
5D4
  8
GR1_01
  6
DASHDOT
 62
     7
 10
-766.5661697640185
 20
478.9484427012701
 30
0.0
 11
-779.5661697640185
 21
478.9484427012701
 31
0.0
  0
LINE
  5
5D5
  8
GR1_01
  6
DASHDOT
 62
     7
 10
-763.0661697640185
 20
250.9484427012701
 30
0.0
 11
-763.0661697640185
 21
276.9484427012701
 31
0.0
  0
LINE
  5
5D6
  8
GR1_01
  6
DASHDOT
 62
     7
 10
-750.0661697640185
 20
263.9484427012701
 30
0.0
 11
-776.0661697640185
 21
263.9484427012701
 31
0.0
  0
LINE
  5
5D7
  8
GR1_01
  6
DASHDOT
 62
     7
 10
-763.0661697640185
 20
450.9484427012701
 30
0.0
 11
-763.0661697640185
 21
476.9484427012701
 31
0.0
  0
LINE
  5
5D8
  8
GR1_01
  6
DASHDOT
 62
     7
 10
-750.0661697640185
 20
463.9484427012701
 30
0.0
 11
-776.0661697640185
 21
463.9484427012701
 31
0.0
  0
LINE
  5
5D9
  8
GR1_01
  6
DASHDOT
 62
     7
 10
-683.0661697640185
 20
250.9484427012701
 30
0.0
 11
-683.0661697640185
 21
276.9484427012701
 31
0.0
  0
LINE
  5
5DA
  8
GR1_01
  6
DASHDOT
 62
     7
 10
-670.0661697640185
 20
263.9484427012701
 30
0.0
 11
-696.0661697640185
 21
263.9484427012701
 31
0.0
  0
LINE
  5
5DB
  8
GR1_01
  6
DASHDOT
 62
     7
 10
-683.0661697640185
 20
450.9484427012701
 30
0.0
 11
-683.0661697640185
 21
476.9484427012701
 31
0.0
  0
LINE
  5
5DC
  8
GR1_01
  6
DASHDOT
 62
     7
 10
-670.0661697640185
 20
463.9484427012701
 30
0.0
 11
-696.0661697640185
 21
463.9484427012701
 31
0.0
  0
LINE
  5
5DD
  8
GR1_01
  6
DASHDOT
 62
     7
 10
-673.0661697640185
 20
242.4484427012701
 30
0.0
 11
-673.0661697640185
 21
255.4484427012701
 31
0.0
  0
LINE
  5
5DE
  8
GR1_01
  6
DASHDOT
 62
     7
 10
-666.5661697640185
 20
248.9484427012701
 30
0.0
 11
-679.5661697640185
 21
248.9484427012701
 31
0.0
  0
LINE
  5
5DF
  8
GR1_01
  6
DASHDOT
 62
     7
 10
-673.0661697640185
 20
472.4484427012701
 30
0.0
 11
-673.0661697640185
 21
485.4484427012701
 31
0.0
  0
LINE
  5
5E0
  8
GR1_01
  6
DASHDOT
 62
     7
 10
-666.5661697640185
 20
478.9484427012701
 30
0.0
 11
-679.5661697640185
 21
478.9484427012701
 31
0.0
  0
LINE
  5
5E1
  8
GR1_01
  6
DASHDOT
 62
     7
 10
-646.0661697640185
 20
251.4484427012701
 30
0.0
 11
-646.0661697640185
 21
276.4484427012701
 31
0.0
  0
LINE
  5
5E2
  8
GR1_01
  6
DASHDOT
 62
     7
 10
-633.5661697640185
 20
263.9484427012701
 30
0.0
 11
-658.5661697640185
 21
263.9484427012701
 31
0.0
  0
LINE
  5
5E3
  8
GR1_01
  6
DASHDOT
 62
     7
 10
-646.0661697640185
 20
453.4484427012701
 30
0.0
 11
-646.0661697640185
 21
478.4484427012701
 31
0.0
  0
LINE
  5
5E4
  8
GR1_01
  6
DASHDOT
 62
     7
 10
-633.5661697640185
 20
465.9484427012701
 30
0.0
 11
-658.5661697640185
 21
465.9484427012701
 31
0.0
  0
LINE
  5
5E5
  8
GR1_01
  6
DASHDOT
 62
     7
 10
-643.0661697640185
 20
274.9484427012701
 30
0.0
 11
-643.0661697640185
 21
292.9484427012701
 31
0.0
  0
LINE
  5
5E6
  8
GR1_01
  6
DASHDOT
 62
     7
 10
-634.0661697640185
 20
283.9484427012701
 30
0.0
 11
-652.0661697640185
 21
283.9484427012701
 31
0.0
  0
LINE
  5
5E7
  8
GR1_01
  6
DASHDOT
 62
     7
 10
-643.0661697640185
 20
434.9484427012701
 30
0.0
 11
-643.0661697640185
 21
452.9484427012701
 31
0.0
  0
LINE
  5
5E8
  8
GR1_01
  6
DASHDOT
 62
     7
 10
-634.0661697640185
 20
443.9484427012701
 30
0.0
 11
-652.0661697640185
 21
443.9484427012701
 31
0.0
  0
ARC
  5
5E9
  8
GR1_01
  6
CONTINUOUS
 62
     3
 10
-689.0661697640185
 20
437.9484427012701
 30
0.0
 40
6.0
 50
0.0
 51
90.0
  0
ARC
  5
5EA
  8
GR1_01
  6
CONTINUOUS
 62
     3
 10
-757.0661697640185
 20
437.9484427012701
 30
0.0
 40
6.0
 50
90.0
 51
180.0
  0
ARC
  5
5EB
  8
GR1_01
  6
CONTINUOUS
 62
     3
 10
-757.0661697640185
 20
289.9484427012701
 30
0.0
 40
6.0
 50
180.0
 51
270.0
  0
ARC
  5
5EC
  8
GR1_01
  6
CONTINUOUS
 62
     3
 10
-689.0661697640185
 20
289.9484427012701
 30
0.0
 40
6.0
 50
270.0
 51
0.0
  0
LINE
  5
5ED
  8
10
  6
HIDDEN
 62
     3
 10
-696.5302713740184
 20
313.9484427012701
 30
0.0
 11
-696.5302713740184
 21
309.9484427012701
 31
0.0
  0
LINE
  5
5EE
  8
10
  6
HIDDEN
 62
     3
 10
-693.0661697640185
 20
315.9484427012701
 30
0.0
 11
-696.5302713740184
 21
313.9484427012701
 31
0.0
  0
LINE
  5
5EF
  8
10
  6
HIDDEN
 62
     3
 10
-696.5302713740184
 20
309.9484427012701
 30
0.0
 11
-693.0661697640185
 21
307.9484427012701
 31
0.0
  0
CIRCLE
  5
5F0
  8
10
  6
HIDDEN
 62
     3
 10
-693.0661697640185
 20
311.9484427012701
 30
0.0
 40
6.5
  0
CIRCLE
  5
5F1
  8
10
  6
HIDDEN
 62
     3
 10
-693.0661697640185
 20
311.9484427012701
 30
0.0
 40
2.995
  0
LINE
  5
5F2
  8
10
  6
HIDDEN
 62
     3
 10
-693.0661697640185
 20
307.9484427012701
 30
0.0
 11
-689.6020681440186
 21
309.9484427012701
 31
0.0
  0
LINE
  5
5F3
  8
10
  6
HIDDEN
 62
     3
 10
-689.6020681440186
 20
309.9484427012701
 30
0.0
 11
-689.6020681440186
 21
313.9484427012701
 31
0.0
  0
CIRCLE
  5
5F4
  8
10
  6
HIDDEN
 62
     3
 10
-693.0661697640185
 20
311.9484427012701
 30
0.0
 40
4.0
  0
LINE
  5
5F5
  8
10
  6
HIDDEN
 62
     3
 10
-689.6020681440186
 20
313.9484427012701
 30
0.0
 11
-693.0661697640185
 21
315.9484427012701
 31
0.0
  0
CIRCLE
  5
5F6
  8
10
  6
HIDDEN
 62
     3
 10
-693.0661697640185
 20
311.9484427012701
 30
0.0
 40
0.000005
  0
LINE
  5
5F7
  8
GR1_01
  6
DASHDOT
 62
     7
 10
-693.0661697640185
 20
305.4484427012701
 30
0.0
 11
-693.0661697640185
 21
318.4484427012701
 31
0.0
  0
LINE
  5
5F8
  8
GR1_01
  6
DASHDOT
 62
     7
 10
-686.5661697640185
 20
311.9484427012701
 30
0.0
 11
-699.5661697640185
 21
311.9484427012701
 31
0.0
  0
LINE
  5
5F9
  8
10
  6
HIDDEN
 62
     3
 10
-696.5302713740184
 20
365.9484427012701
 30
0.0
 11
-696.5302713740184
 21
361.9484427012701
 31
0.0
  0
LINE
  5
5FA
  8
10
  6
HIDDEN
 62
     3
 10
-693.0661697640185
 20
367.9484427012701
 30
0.0
 11
-696.5302713740184
 21
365.9484427012701
 31
0.0
  0
LINE
  5
5FB
  8
10
  6
HIDDEN
 62
     3
 10
-696.5302713740184
 20
361.9484427012701
 30
0.0
 11
-693.0661697640185
 21
359.9484427012701
 31
0.0
  0
CIRCLE
  5
5FC
  8
10
  6
HIDDEN
 62
     3
 10
-693.0661697640185
 20
363.9484427012701
 30
0.0
 40
6.5
  0
CIRCLE
  5
5FD
  8
10
  6
HIDDEN
 62
     3
 10
-693.0661697640185
 20
363.9484427012701
 30
0.0
 40
2.995
  0
LINE
  5
5FE
  8
10
  6
HIDDEN
 62
     3
 10
-693.0661697640185
 20
359.9484427012701
 30
0.0
 11
-689.6020681440186
 21
361.9484427012701
 31
0.0
  0
LINE
  5
5FF
  8
10
  6
HIDDEN
 62
     3
 10
-689.6020681440186
 20
361.9484427012701
 30
0.0
 11
-689.6020681440186
 21
365.9484427012701
 31
0.0
  0
CIRCLE
  5
600
  8
10
  6
HIDDEN
 62
     3
 10
-693.0661697640185
 20
363.9484427012701
 30
0.0
 40
4.0
  0
LINE
  5
601
  8
10
  6
HIDDEN
 62
     3
 10
-689.6020681440186
 20
365.9484427012701
 30
0.0
 11
-693.0661697640185
 21
367.9484427012701
 31
0.0
  0
CIRCLE
  5
602
  8
10
  6
HIDDEN
 62
     3
 10
-693.0661697640185
 20
363.9484427012701
 30
0.0
 40
0.000005
  0
LINE
  5
603
  8
GR1_01
  6
DASHDOT
 62
     7
 10
-693.0661697640185
 20
357.4484427012701
 30
0.0
 11
-693.0661697640185
 21
370.4484427012701
 31
0.0
  0
LINE
  5
604
  8
GR1_01
  6
DASHDOT
 62
     7
 10
-686.5661697640185
 20
363.9484427012701
 30
0.0
 11
-699.5661697640185
 21
363.9484427012701
 31
0.0
  0
LINE
  5
605
  8
10
  6
HIDDEN
 62
     3
 10
-696.5302713740184
 20
413.9484427012701
 30
0.0
 11
-696.5302713740184
 21
417.9484427012701
 31
0.0
  0
LINE
  5
606
  8
10
  6
HIDDEN
 62
     3
 10
-693.0661697640185
 20
411.9484427012701
 30
0.0
 11
-696.5302713740184
 21
413.9484427012701
 31
0.0
  0
LINE
  5
607
  8
10
  6
HIDDEN
 62
     3
 10
-696.5302713740184
 20
417.9484427012701
 30
0.0
 11
-693.0661697640185
 21
419.9484427012701
 31
0.0
  0
CIRCLE
  5
608
  8
10
  6
HIDDEN
 62
     3
 10
-693.0661697640185
 20
415.9484427012701
 30
0.0
 40
6.5
  0
CIRCLE
  5
609
  8
10
  6
HIDDEN
 62
     3
 10
-693.0661697640185
 20
415.9484427012701
 30
0.0
 40
2.995
  0
LINE
  5
60A
  8
10
  6
HIDDEN
 62
     3
 10
-693.0661697640185
 20
419.9484427012701
 30
0.0
 11
-689.6020681440186
 21
417.9484427012701
 31
0.0
  0
LINE
  5
60B
  8
10
  6
HIDDEN
 62
     3
 10
-689.6020681440186
 20
417.9484427012701
 30
0.0
 11
-689.6020681440186
 21
413.9484427012701
 31
0.0
  0
CIRCLE
  5
60C
  8
10
  6
HIDDEN
 62
     3
 10
-693.0661697640185
 20
415.9484427012701
 30
0.0
 40
4.0
  0
LINE
  5
60D
  8
10
  6
HIDDEN
 62
     3
 10
-689.6020681440186
 20
413.9484427012701
 30
0.0
 11
-693.0661697640185
 21
411.9484427012701
 31
0.0
  0
CIRCLE
  5
60E
  8
10
  6
HIDDEN
 62
     3
 10
-693.0661697640185
 20
415.9484427012701
 30
0.0
 40
0.000005
  0
LINE
  5
60F
  8
GR1_01
  6
DASHDOT
 62
     7
 10
-693.0661697640185
 20
422.4484427012701
 30
0.0
 11
-693.0661697640185
 21
409.4484427012701
 31
0.0
  0
LINE
  5
610
  8
GR1_01
  6
DASHDOT
 62
     7
 10
-686.5661697640185
 20
415.9484427012701
 30
0.0
 11
-699.5661697640185
 21
415.9484427012701
 31
0.0
  0
LINE
  5
611
  8
10
  6
HIDDEN
 62
     3
 10
-749.6020681540185
 20
313.9484427012701
 30
0.0
 11
-749.6020681540185
 21
309.9484427012701
 31
0.0
  0
LINE
  5
612
  8
10
  6
HIDDEN
 62
     3
 10
-753.0661697640185
 20
315.9484427012701
 30
0.0
 11
-749.6020681540185
 21
313.9484427012701
 31
0.0
  0
LINE
  5
613
  8
10
  6
HIDDEN
 62
     3
 10
-749.6020681540185
 20
309.9484427012701
 30
0.0
 11
-753.0661697640185
 21
307.9484427012701
 31
0.0
  0
CIRCLE
  5
614
  8
10
  6
HIDDEN
 62
     3
 10
-753.0661697640185
 20
311.9484427012701
 30
0.0
 40
6.5
  0
CIRCLE
  5
615
  8
10
  6
HIDDEN
 62
     3
 10
-753.0661697640185
 20
311.9484427012701
 30
0.0
 40
2.995
  0
LINE
  5
616
  8
10
  6
HIDDEN
 62
     3
 10
-753.0661697640185
 20
307.9484427012701
 30
0.0
 11
-756.5302713840183
 21
309.9484427012701
 31
0.0
  0
LINE
  5
617
  8
10
  6
HIDDEN
 62
     3
 10
-756.5302713840183
 20
309.9484427012701
 30
0.0
 11
-756.5302713840183
 21
313.9484427012701
 31
0.0
  0
CIRCLE
  5
618
  8
10
  6
HIDDEN
 62
     3
 10
-753.0661697640185
 20
311.9484427012701
 30
0.0
 40
4.0
  0
LINE
  5
619
  8
10
  6
HIDDEN
 62
     3
 10
-756.5302713840183
 20
313.9484427012701
 30
0.0
 11
-753.0661697640185
 21
315.9484427012701
 31
0.0
  0
CIRCLE
  5
61A
  8
10
  6
HIDDEN
 62
     3
 10
-753.0661697640185
 20
311.9484427012701
 30
0.0
 40
0.000005
  0
LINE
  5
61B
  8
GR1_01
  6
DASHDOT
 62
     7
 10
-753.0661697640185
 20
305.4484427012701
 30
0.0
 11
-753.0661697640185
 21
318.4484427012701
 31
0.0
  0
LINE
  5
61C
  8
GR1_01
  6
DASHDOT
 62
     7
 10
-759.5661697640185
 20
311.9484427012701
 30
0.0
 11
-746.5661697640185
 21
311.9484427012701
 31
0.0
  0
LINE
  5
61D
  8
10
  6
HIDDEN
 62
     3
 10
-749.6020681540185
 20
365.9484427012701
 30
0.0
 11
-749.6020681540185
 21
361.9484427012701
 31
0.0
  0
LINE
  5
61E
  8
10
  6
HIDDEN
 62
     3
 10
-753.0661697640185
 20
367.9484427012701
 30
0.0
 11
-749.6020681540185
 21
365.9484427012701
 31
0.0
  0
LINE
  5
61F
  8
10
  6
HIDDEN
 62
     3
 10
-749.6020681540185
 20
361.9484427012701
 30
0.0
 11
-753.0661697640185
 21
359.9484427012701
 31
0.0
  0
CIRCLE
  5
620
  8
10
  6
HIDDEN
 62
     3
 10
-753.0661697640185
 20
363.9484427012701
 30
0.0
 40
6.5
  0
CIRCLE
  5
621
  8
10
  6
HIDDEN
 62
     3
 10
-753.0661697640185
 20
363.9484427012701
 30
0.0
 40
2.995
  0
LINE
  5
622
  8
10
  6
HIDDEN
 62
     3
 10
-753.0661697640185
 20
359.9484427012701
 30
0.0
 11
-756.5302713840183
 21
361.9484427012701
 31
0.0
  0
LINE
  5
623
  8
10
  6
HIDDEN
 62
     3
 10
-756.5302713840183
 20
361.9484427012701
 30
0.0
 11
-756.5302713840183
 21
365.9484427012701
 31
0.0
  0
CIRCLE
  5
624
  8
10
  6
HIDDEN
 62
     3
 10
-753.0661697640185
 20
363.9484427012701
 30
0.0
 40
4.0
  0
LINE
  5
625
  8
10
  6
HIDDEN
 62
     3
 10
-756.5302713840183
 20
365.9484427012701
 30
0.0
 11
-753.0661697640185
 21
367.9484427012701
 31
0.0
  0
CIRCLE
  5
626
  8
10
  6
HIDDEN
 62
     3
 10
-753.0661697640185
 20
363.9484427012701
 30
0.0
 40
0.000005
  0
LINE
  5
627
  8
GR1_01
  6
DASHDOT
 62
     7
 10
-753.0661697640185
 20
357.4484427012701
 30
0.0
 11
-753.0661697640185
 21
370.4484427012701
 31
0.0
  0
LINE
  5
628
  8
GR1_01
  6
DASHDOT
 62
     7
 10
-759.5661697640185
 20
363.9484427012701
 30
0.0
 11
-746.5661697640185
 21
363.9484427012701
 31
0.0
  0
LINE
  5
629
  8
10
  6
HIDDEN
 62
     3
 10
-749.6020681540185
 20
413.9484427012701
 30
0.0
 11
-749.6020681540185
 21
417.9484427012701
 31
0.0
  0
LINE
  5
62A
  8
10
  6
HIDDEN
 62
     3
 10
-753.0661697640185
 20
411.9484427012701
 30
0.0
 11
-749.6020681540185
 21
413.9484427012701
 31
0.0
  0
LINE
  5
62B
  8
10
  6
HIDDEN
 62
     3
 10
-749.6020681540185
 20
417.9484427012701
 30
0.0
 11
-753.0661697640185
 21
419.9484427012701
 31
0.0
  0
CIRCLE
  5
62C
  8
10
  6
HIDDEN
 62
     3
 10
-753.0661697640185
 20
415.9484427012701
 30
0.0
 40
6.5
  0
CIRCLE
  5
62D
  8
10
  6
HIDDEN
 62
     3
 10
-753.0661697640185
 20
415.9484427012701
 30
0.0
 40
2.995
  0
LINE
  5
62E
  8
10
  6
HIDDEN
 62
     3
 10
-753.0661697640185
 20
419.9484427012701
 30
0.0
 11
-756.5302713840183
 21
417.9484427012701
 31
0.0
  0
LINE
  5
62F
  8
10
  6
HIDDEN
 62
     3
 10
-756.5302713840183
 20
417.9484427012701
 30
0.0
 11
-756.5302713840183
 21
413.9484427012701
 31
0.0
  0
CIRCLE
  5
630
  8
10
  6
HIDDEN
 62
     3
 10
-753.0661697640185
 20
415.9484427012701
 30
0.0
 40
4.0
  0
LINE
  5
631
  8
10
  6
HIDDEN
 62
     3
 10
-756.5302713840183
 20
413.9484427012701
 30
0.0
 11
-753.0661697640185
 21
411.9484427012701
 31
0.0
  0
CIRCLE
  5
632
  8
10
  6
HIDDEN
 62
     3
 10
-753.0661697640185
 20
415.9484427012701
 30
0.0
 40
0.000005
  0
LINE
  5
633
  8
GR1_01
  6
DASHDOT
 62
     7
 10
-753.0661697640185
 20
422.4484427012701
 30
0.0
 11
-753.0661697640185
 21
409.4484427012701
 31
0.0
  0
LINE
  5
634
  8
GR1_01
  6
DASHDOT
 62
     7
 10
-759.5661697640185
 20
415.9484427012701
 30
0.0
 11
-746.5661697640185
 21
415.9484427012701
 31
0.0
  0
LINE
  5
635
  8
250
  6
CONTINUOUS
 62
     3
 10
-833.0661697640185
 20
135.8063132764463
 30
0.0
 11
-833.0661697640185
 21
75.8063132764463
 31
0.0
  0
LINE
  5
636
  8
GR1_01
  6
CONTINUOUS
 62
     3
 10
-833.0661697640185
 20
135.8063132764463
 30
0.0
 11
-823.0661697640185
 21
135.8063132764463
 31
0.0
  0
LINE
  5
637
  8
GR1_01
  6
CONTINUOUS
 62
     3
 10
-833.0661697640185
 20
75.80631327644632
 30
0.0
 11
-823.0661697640185
 21
75.80631327644632
 31
0.0
  0
LINE
  5
638
  8
GR1_01
  6
DASHDOT
 62
     7
 10
-841.0661697640185
 20
125.8063132764463
 30
0.0
 11
-808.0661697640185
 21
125.8063132764463
 31
0.0
  0
LINE
  5
639
  8
GR1_01
  6
CONTINUOUS
 62
     7
 10
-833.0661697640185
 20
119.3063132764463
 30
0.0
 11
-840.2661697640185
 21
119.3063132764463
 31
0.0
  0
LINE
  5
63A
  8
GR1_01
  6
CONTINUOUS
 62
     7
 10
-840.2661697640185
 20
119.3063132764463
 30
0.0
 11
-841.0661697640185
 21
120.1063132764463
 31
0.0
  0
LINE
  5
63B
  8
GR1_01
  6
CONTINUOUS
 62
     7
 10
-841.0661697640185
 20
120.1063132764463
 30
0.0
 11
-841.0661697640185
 21
131.5063132764463
 31
0.0
  0
LINE
  5
63C
  8
GR1_01
  6
CONTINUOUS
 62
     7
 10
-841.0661697640185
 20
131.5063132764463
 30
0.0
 11
-840.2661697640185
 21
132.3063132764463
 31
0.0
  0
LINE
  5
63D
  8
GR1_01
  6
CONTINUOUS
 62
     7
 10
-840.2661697640185
 20
132.3063132764463
 30
0.0
 11
-833.0661697640185
 21
132.3063132764463
 31
0.0
  0
LINE
  5
63E
  8
GR1_01
  6
CONTINUOUS
 62
     7
 10
-840.2661697640185
 20
119.3063132764463
 30
0.0
 11
-840.2661697640185
 21
132.3063132764463
 31
0.0
  0
LINE
  5
63F
  8
GR1_01
  6
CONTINUOUS
 62
     7
 10
-833.0661697640185
 20
119.3063132764463
 30
0.0
 11
-833.0661697640185
 21
132.3063132764463
 31
0.0
  0
LINE
  5
640
  8
GR1_01
  6
CONTINUOUS
 62
     7
 10
-823.0661697640186
 20
121.8063132764463
 30
0.0
 11
-809.6661697640185
 21
121.8063132764463
 31
0.0
  0
LINE
  5
641
  8
GR1_01
  6
CONTINUOUS
 62
     7
 10
-823.0661697640186
 20
129.8063132764463
 30
0.0
 11
-809.6661697640185
 21
129.8063132764463
 31
0.0
  0
LINE
  5
642
  8
GR1_01
  6
CONTINUOUS
 62
     7
 10
-809.6661697640185
 20
121.8063132764463
 30
0.0
 11
-808.0661697640185
 21
123.4063132764462
 31
0.0
  0
LINE
  5
643
  8
GR1_01
  6
CONTINUOUS
 62
     7
 10
-809.6661697640185
 20
129.8063132764463
 30
0.0
 11
-808.0661697640185
 21
128.2063132764464
 31
0.0
  0
LINE
  5
644
  8
GR1_01
  6
CONTINUOUS
 62
     7
 10
-808.0661697640185
 20
123.4063132764462
 30
0.0
 11
-808.0661697640185
 21
128.2063132764464
 31
0.0
  0
LINE
  5
645
  8
GR1_01
  6
DASHDOT
 62
     7
 10
-841.0661697640185
 20
85.8063132764463
 30
0.0
 11
-808.0661697640185
 21
85.8063132764463
 31
0.0
  0
LINE
  5
646
  8
GR1_01
  6
CONTINUOUS
 62
     7
 10
-833.0661697640185
 20
92.3063132764463
 30
0.0
 11
-840.2661697640185
 21
92.3063132764463
 31
0.0
  0
LINE
  5
647
  8
GR1_01
  6
CONTINUOUS
 62
     7
 10
-840.2661697640185
 20
92.3063132764463
 30
0.0
 11
-841.0661697640185
 21
91.50631327644635
 31
0.0
  0
LINE
  5
648
  8
GR1_01
  6
CONTINUOUS
 62
     7
 10
-841.0661697640185
 20
91.50631327644635
 30
0.0
 11
-841.0661697640185
 21
80.10631327644626
 31
0.0
  0
LINE
  5
649
  8
GR1_01
  6
CONTINUOUS
 62
     7
 10
-841.0661697640185
 20
80.10631327644626
 30
0.0
 11
-840.2661697640185
 21
79.3063132764463
 31
0.0
  0
LINE
  5
64A
  8
GR1_01
  6
CONTINUOUS
 62
     7
 10
-840.2661697640185
 20
79.3063132764463
 30
0.0
 11
-833.0661697640185
 21
79.3063132764463
 31
0.0
  0
LINE
  5
64B
  8
GR1_01
  6
CONTINUOUS
 62
     7
 10
-840.2661697640185
 20
92.3063132764463
 30
0.0
 11
-840.2661697640185
 21
79.3063132764463
 31
0.0
  0
LINE
  5
64C
  8
GR1_01
  6
CONTINUOUS
 62
     7
 10
-833.0661697640185
 20
92.3063132764463
 30
0.0
 11
-833.0661697640185
 21
79.3063132764463
 31
0.0
  0
LINE
  5
64D
  8
GR1_01
  6
CONTINUOUS
 62
     7
 10
-823.0661697640185
 20
89.80631327644629
 30
0.0
 11
-809.6661697640185
 21
89.8063132764463
 31
0.0
  0
LINE
  5
64E
  8
GR1_01
  6
CONTINUOUS
 62
     7
 10
-823.0661697640185
 20
81.8063132764463
 30
0.0
 11
-809.6661697640185
 21
81.8063132764463
 31
0.0
  0
LINE
  5
64F
  8
GR1_01
  6
CONTINUOUS
 62
     7
 10
-809.6661697640185
 20
89.8063132764463
 30
0.0
 11
-808.0661697640185
 21
88.2063132764464
 31
0.0
  0
LINE
  5
650
  8
GR1_01
  6
CONTINUOUS
 62
     7
 10
-809.6661697640185
 20
81.8063132764463
 30
0.0
 11
-808.0661697640185
 21
83.40631327644621
 31
0.0
  0
LINE
  5
651
  8
GR1_01
  6
CONTINUOUS
 62
     7
 10
-808.0661697640185
 20
88.2063132764464
 30
0.0
 11
-808.0661697640185
 21
83.40631327644621
 31
0.0
  0
LINE
  5
652
  8
GR1_01
  6
CONTINUOUS
 62
     3
 10
-833.0661697640185
 20
363.9484427012701
 30
0.0
 11
-833.0661697640185
 21
383.9484427012701
 31
0.0
  0
LINE
  5
653
  8
GR1_01
  6
CONTINUOUS
 62
     3
 10
-833.0661697640185
 20
383.9484427012701
 30
0.0
 11
-823.0661697640185
 21
383.9484427012701
 31
0.0
  0
LINE
  5
654
  8
GR1_01
  6
CONTINUOUS
 62
     3
 10
-833.0661697640185
 20
363.9484427012701
 30
0.0
 11
-823.0661697640185
 21
363.9484427012701
 31
0.0
  0
LINE
  5
655
  8
GR1_01
  6
DASHDOT
 62
     7
 10
-841.0661697640185
 20
373.9484427012701
 30
0.0
 11
-808.0661697640185
 21
373.9484427012701
 31
0.0
  0
LINE
  5
656
  8
GR1_01
  6
CONTINUOUS
 62
     7
 10
-833.0661697640185
 20
380.4484427012701
 30
0.0
 11
-840.2661697640185
 21
380.4484427012701
 31
0.0
  0
LINE
  5
657
  8
GR1_01
  6
CONTINUOUS
 62
     7
 10
-840.2661697640185
 20
380.4484427012701
 30
0.0
 11
-841.0661697640185
 21
379.6484427012701
 31
0.0
  0
LINE
  5
658
  8
GR1_01
  6
CONTINUOUS
 62
     7
 10
-841.0661697640185
 20
379.6484427012701
 30
0.0
 11
-841.0661697640185
 21
368.2484427012701
 31
0.0
  0
LINE
  5
659
  8
GR1_01
  6
CONTINUOUS
 62
     7
 10
-841.0661697640185
 20
368.2484427012701
 30
0.0
 11
-840.2661697640185
 21
367.4484427012701
 31
0.0
  0
LINE
  5
65A
  8
GR1_01
  6
CONTINUOUS
 62
     7
 10
-840.2661697640185
 20
367.4484427012701
 30
0.0
 11
-833.0661697640185
 21
367.4484427012701
 31
0.0
  0
LINE
  5
65B
  8
GR1_01
  6
CONTINUOUS
 62
     7
 10
-840.2661697640185
 20
380.4484427012701
 30
0.0
 11
-840.2661697640185
 21
367.4484427012701
 31
0.0
  0
LINE
  5
65C
  8
GR1_01
  6
CONTINUOUS
 62
     7
 10
-833.0661697640185
 20
380.4484427012701
 30
0.0
 11
-833.0661697640185
 21
367.4484427012701
 31
0.0
  0
LINE
  5
65D
  8
GR1_01
  6
CONTINUOUS
 62
     7
 10
-823.0661697640185
 20
377.9484427012701
 30
0.0
 11
-809.6661697640185
 21
377.9484427012701
 31
0.0
  0
LINE
  5
65E
  8
GR1_01
  6
CONTINUOUS
 62
     7
 10
-823.0661697640185
 20
369.9484427012701
 30
0.0
 11
-809.6661697640185
 21
369.9484427012701
 31
0.0
  0
LINE
  5
65F
  8
GR1_01
  6
CONTINUOUS
 62
     7
 10
-809.6661697640185
 20
377.9484427012701
 30
0.0
 11
-808.0661697640185
 21
376.3484427012702
 31
0.0
  0
LINE
  5
660
  8
GR1_01
  6
CONTINUOUS
 62
     7
 10
-809.6661697640185
 20
369.9484427012701
 30
0.0
 11
-808.0661697640185
 21
371.54844270127
 31
0.0
  0
LINE
  5
661
  8
GR1_01
  6
CONTINUOUS
 62
     7
 10
-808.0661697640185
 20
376.3484427012702
 30
0.0
 11
-808.0661697640185
 21
371.54844270127
 31
0.0
  0
LINE
  5
662
  8
GR1_01
  6
CONTINUOUS
 62
     3
 10
-892.3803086220782
 20
363.9484427012701
 30
0.0
 11
-892.3803086220782
 21
383.9484427012701
 31
0.0
  0
LINE
  5
663
  8
GR1_01
  6
CONTINUOUS
 62
     3
 10
-892.3803086220782
 20
383.9484427012701
 30
0.0
 11
-902.3803086220782
 21
383.9484427012701
 31
0.0
  0
LINE
  5
664
  8
GR1_01
  6
CONTINUOUS
 62
     3
 10
-892.3803086220782
 20
363.9484427012701
 30
0.0
 11
-902.3803086220782
 21
363.9484427012701
 31
0.0
  0
LINE
  5
665
  8
GR1_01
  6
DASHDOT
 62
     7
 10
-884.3803086220782
 20
373.9484427012701
 30
0.0
 11
-917.3803086220782
 21
373.9484427012701
 31
0.0
  0
LINE
  5
666
  8
GR1_01
  6
CONTINUOUS
 62
     7
 10
-892.3803086220782
 20
380.4484427012701
 30
0.0
 11
-885.1803086220782
 21
380.4484427012701
 31
0.0
  0
LINE
  5
667
  8
GR1_01
  6
CONTINUOUS
 62
     7
 10
-885.1803086220782
 20
380.4484427012701
 30
0.0
 11
-884.3803086220782
 21
379.6484427012701
 31
0.0
  0
LINE
  5
668
  8
GR1_01
  6
CONTINUOUS
 62
     7
 10
-884.3803086220782
 20
379.6484427012701
 30
0.0
 11
-884.3803086220782
 21
368.2484427012701
 31
0.0
  0
LINE
  5
669
  8
GR1_01
  6
CONTINUOUS
 62
     7
 10
-884.3803086220782
 20
368.2484427012701
 30
0.0
 11
-885.1803086220782
 21
367.4484427012701
 31
0.0
  0
LINE
  5
66A
  8
GR1_01
  6
CONTINUOUS
 62
     7
 10
-885.1803086220782
 20
367.4484427012701
 30
0.0
 11
-892.3803086220782
 21
367.4484427012701
 31
0.0
  0
LINE
  5
66B
  8
GR1_01
  6
CONTINUOUS
 62
     7
 10
-885.1803086220782
 20
380.4484427012701
 30
0.0
 11
-885.1803086220782
 21
367.4484427012701
 31
0.0
  0
LINE
  5
66C
  8
GR1_01
  6
CONTINUOUS
 62
     7
 10
-892.3803086220782
 20
380.4484427012701
 30
0.0
 11
-892.3803086220782
 21
367.4484427012701
 31
0.0
  0
LINE
  5
66D
  8
GR1_01
  6
CONTINUOUS
 62
     7
 10
-902.3803086220782
 20
377.9484427012701
 30
0.0
 11
-915.7803086220782
 21
377.9484427012701
 31
0.0
  0
LINE
  5
66E
  8
GR1_01
  6
CONTINUOUS
 62
     7
 10
-902.3803086220782
 20
369.9484427012701
 30
0.0
 11
-915.7803086220782
 21
369.9484427012701
 31
0.0
  0
LINE
  5
66F
  8
GR1_01
  6
CONTINUOUS
 62
     7
 10
-915.7803086220782
 20
377.9484427012701
 30
0.0
 11
-917.3803086220782
 21
376.3484427012702
 31
0.0
  0
LINE
  5
670
  8
GR1_01
  6
CONTINUOUS
 62
     7
 10
-915.7803086220782
 20
369.9484427012701
 30
0.0
 11
-917.3803086220782
 21
371.54844270127
 31
0.0
  0
LINE
  5
671
  8
GR1_01
  6
CONTINUOUS
 62
     7
 10
-917.3803086220782
 20
376.3484427012702
 30
0.0
 11
-917.3803086220782
 21
371.54844270127
 31
0.0
  0
ENDSEC
  0
EOF
